  0
SECTION
  2
HEADER
  9
$ACADVER
  1
AC1015
  9
$ACADMAINTVER
 70
     6
  9
$DWGCODEPAGE
  3
ANSI_1252
  9
$INSBASE
 10
0.0
 20
0.0
 30
0.0
  9
$EXTMIN
 10
0.0
 20
0.0
 30
0.0
  9
$EXTMAX
 10
431.8
 20
279.4
 30
0.0
  9
$LIMMIN
 10
0.0
 20
0.0
  9
$LIMMAX
 10
431.8
 20
279.4
  9
$ORTHOMODE
 70
     0
  9
$REGENMODE
 70
     1
  9
$FILLMODE
 70
     1
  9
$QTEXTMODE
 70
     0
  9
$MIRRTEXT
 70
     1
  9
$LTSCALE
 40
1.0
  9
$ATTMODE
 70
     1
  9
$TEXTSIZE
 40
4.9388888889
  9
$TRACEWID
 40
1.0
  9
$TEXTSTYLE
  7
Standard
  9
$CLAYER
  8
0
  9
$CELTYPE
  6
ByLayer
  9
$CECOLOR
 62
   256
  9
$CELTSCALE
 40
1.0
  9
$DISPSILH
 70
     0
  9
$DIMSCALE
 40
1.0
  9
$DIMASZ
 40
5.1366373698
  9
$DIMEXO
 40
2.0
  9
$DIMDLI
 40
3.75
  9
$DIMRND
 40
0.0
  9
$DIMDLE
 40
0.0
  9
$DIMEXE
 40
2.0
  9
$DIMTP
 40
0.0
  9
$DIMTM
 40
0.0
  9
$DIMTXT
 40
7.0555555556
  9
$DIMCEN
 40
2.5
  9
$DIMTSZ
 40
0.0
  9
$DIMTOL
 70
     0
  9
$DIMLIM
 70
     0
  9
$DIMTIH
 70
     1
  9
$DIMTOH
 70
     1
  9
$DIMSE1
 70
     0
  9
$DIMSE2
 70
     0
  9
$DIMTAD
 70
     1
  9
$DIMZIN
 70
     0
  9
$DIMBLK
  1

  9
$DIMASO
 70
     1
  9
$DIMSHO
 70
     1
  9
$DIMPOST
  1

  9
$DIMAPOST
  1

  9
$DIMALT
 70
     0
  9
$DIMALTD
 70
     3
  9
$DIMALTF
 40
0.0393700787
  9
$DIMLFAC
 40
1.0
  9
$DIMTOFL
 70
     1
  9
$DIMTVP
 40
0.0
  9
$DIMTIX
 70
     0
  9
$DIMSOXD
 70
     0
  9
$DIMSAH
 70
     0
  9
$DIMBLK1
  1

  9
$DIMBLK2
  1

  9
$DIMSTYLE
  2
ISO-25
  9
$DIMCLRD
 70
     0
  9
$DIMCLRE
 70
     0
  9
$DIMCLRT
 70
     0
  9
$DIMTFAC
 40
1.0
  9
$DIMGAP
 40
2.0
  9
$DIMJUST
 70
     0
  9
$DIMSD1
 70
     0
  9
$DIMSD2
 70
     0
  9
$DIMTOLJ
 70
     0
  9
$DIMTZIN
 70
     0
  9
$DIMALTZ
 70
     0
  9
$DIMALTTZ
 70
     0
  9
$DIMUPT
 70
     0
  9
$DIMDEC
 70
     2
  9
$DIMTDEC
 70
     2
  9
$DIMALTU
 70
     2
  9
$DIMALTTD
 70
     3
  9
$DIMTXSTY
  7
Standard
  9
$DIMAUNIT
 70
     0
  9
$DIMADEC
 70
     2
  9
$DIMALTRND
 40
0.0
  9
$DIMAZIN
 70
     0
  9
$DIMDSEP
 70
    44
  9
$DIMATFIT
 70
     3
  9
$DIMFRAC
 70
     0
  9
$DIMLDRBLK
  1

  9
$DIMLUNIT
 70
     2
  9
$DIMLWD
 70
    -2
  9
$DIMLWE
 70
    -2
  9
$DIMTMOVE
 70
     0
  9
$LUNITS
 70
     2
  9
$LUPREC
 70
     2
  9
$SKETCHINC
 40
1.0
  9
$FILLETRAD
 40
10.0
  9
$AUNITS
 70
     0
  9
$AUPREC
 70
     2
  9
$MENU
  1
.
  9
$ELEVATION
 40
0.0
  9
$PELEVATION
 40
0.0
  9
$THICKNESS
 40
0.0
  9
$LIMCHECK
 70
     0
  9
$CHAMFERA
 40
0.0
  9
$CHAMFERB
 40
0.0
  9
$CHAMFERC
 40
0.0
  9
$CHAMFERD
 40
0.0
  9
$SKPOLY
 70
     0
  9
$TDCREATE
 40
2457690.396712488
  9
$TDUCREATE
 40
2457690.313379155
  9
$TDUPDATE
 40
2457690.39671353
  9
$TDUUPDATE
 40
2457690.313380197
  9
$TDINDWG
 40
0.0000000116
  9
$TDUSRTIMER
 40
0.0000000116
  9
$USRTIMER
 70
     1
  9
$ANGBASE
 50
0.0
  9
$ANGDIR
 70
     0
  9
$PDMODE
 70
     0
  9
$PDSIZE
 40
-1.0
  9
$PLINEWID
 40
0.0
  9
$SPLFRAME
 70
     0
  9
$SPLINETYPE
 70
     6
  9
$SPLINESEGS
 70
     8
  9
$HANDSEED
  5
411
  9
$SURFTAB1
 70
     6
  9
$SURFTAB2
 70
     6
  9
$SURFTYPE
 70
     6
  9
$SURFU
 70
     6
  9
$SURFV
 70
     6
  9
$UCSBASE
  2

  9
$UCSNAME
  2

  9
$UCSORG
 10
0.0
 20
0.0
 30
0.0
  9
$UCSXDIR
 10
1.0
 20
0.0
 30
0.0
  9
$UCSYDIR
 10
0.0
 20
1.0
 30
0.0
  9
$UCSORTHOREF
  2

  9
$UCSORTHOVIEW
 70
     0
  9
$UCSORGTOP
 10
0.0
 20
0.0
 30
0.0
  9
$UCSORGBOTTOM
 10
0.0
 20
0.0
 30
0.0
  9
$UCSORGLEFT
 10
0.0
 20
0.0
 30
0.0
  9
$UCSORGRIGHT
 10
0.0
 20
0.0
 30
0.0
  9
$UCSORGFRONT
 10
0.0
 20
0.0
 30
0.0
  9
$UCSORGBACK
 10
0.0
 20
0.0
 30
0.0
  9
$PUCSBASE
  2

  9
$PUCSNAME
  2

  9
$PUCSORG
 10
0.0
 20
0.0
 30
0.0
  9
$PUCSXDIR
 10
1.0
 20
0.0
 30
0.0
  9
$PUCSYDIR
 10
0.0
 20
1.0
 30
0.0
  9
$PUCSORTHOREF
  2

  9
$PUCSORTHOVIEW
 70
     0
  9
$PUCSORGTOP
 10
0.0
 20
0.0
 30
0.0
  9
$PUCSORGBOTTOM
 10
0.0
 20
0.0
 30
0.0
  9
$PUCSORGLEFT
 10
0.0
 20
0.0
 30
0.0
  9
$PUCSORGRIGHT
 10
0.0
 20
0.0
 30
0.0
  9
$PUCSORGFRONT
 10
0.0
 20
0.0
 30
0.0
  9
$PUCSORGBACK
 10
0.0
 20
0.0
 30
0.0
  9
$USERI1
 70
     0
  9
$USERI2
 70
     0
  9
$USERI3
 70
     0
  9
$USERI4
 70
     0
  9
$USERI5
 70
     0
  9
$USERR1
 40
0.0
  9
$USERR2
 40
0.0
  9
$USERR3
 40
0.0
  9
$USERR4
 40
0.0
  9
$USERR5
 40
0.0
  9
$WORLDVIEW
 70
     1
  9
$SHADEDGE
 70
     3
  9
$SHADEDIF
 70
    70
  9
$TILEMODE
 70
     1
  9
$MAXACTVP
 70
    64
  9
$PINSBASE
 10
0.0
 20
0.0
 30
0.0
  9
$PLIMCHECK
 70
     0
  9
$PEXTMIN
 10
1.0000000000E+20
 20
1.0000000000E+20
 30
1.0000000000E+20
  9
$PEXTMAX
 10
-1.0000000000E+20
 20
-1.0000000000E+20
 30
-1.0000000000E+20
  9
$PLIMMIN
 10
0.0
 20
0.0
  9
$PLIMMAX
 10
420.0
 20
297.0
  9
$UNITMODE
 70
     0
  9
$VISRETAIN
 70
     1
  9
$PLINEGEN
 70
     0
  9
$PSLTSCALE
 70
     1
  9
$TREEDEPTH
 70
  3020
  9
$CMLSTYLE
  2
Standard
  9
$CMLJUST
 70
     0
  9
$CMLSCALE
 40
20.0
  9
$PROXYGRAPHICS
 70
     1
  9
$MEASUREMENT
 70
     1
  9
$CELWEIGHT
370
    -1
  9
$ENDCAPS
280
     0
  9
$JOINSTYLE
280
     0
  9
$LWDISPLAY
290
     1
  9
$INSUNITS
 70
     4
  9
$HYPERLINKBASE
  1

  9
$STYLESHEET
  1

  9
$XEDIT
290
     1
  9
$CEPSNTYPE
380
     0
  9
$PSTYLEMODE
290
     1
  9
$FINGERPRINTGUID
  2
{600A89DD-30A2-4420-899A-EEB1B1D62FEB}
  9
$VERSIONGUID
  2
{FAEB1C32-E019-11D5-929B-00C0DF256EC4}
  9
$EXTNAMES
290
     1
  9
$PSVPSCALE
 40
0.0
  9
$OLESTARTUP
290
     0
  0
ENDSEC
  0
SECTION
  2
CLASSES
  0
CLASS
  1
ACDBDICTIONARYWDFLT
  2
AcDbDictionaryWithDefault
  3
ObjectDBX Classes
 90
        0
280
     0
281
     0
  0
CLASS
  1
VISUALSTYLE
  2
AcDbVisualStyle
  3
ObjectDBX Classes
 90
     4095
280
     0
281
     0
  0
CLASS
  1
MATERIAL
  2
AcDbMaterial
  3
ObjectDBX Classes
 90
     1153
280
     0
281
     0
  0
CLASS
  1
SCALE
  2
AcDbScale
  3
ObjectDBX Classes
 90
     1153
280
     0
281
     0
  0
CLASS
  1
TABLESTYLE
  2
AcDbTableStyle
  3
ObjectDBX Classes
 90
     4095
280
     0
281
     0
  0
CLASS
  1
MLEADERSTYLE
  2
AcDbMLeaderStyle
  3
ACDB_MLEADERSTYLE_CLASS
 90
     4095
280
     0
281
     0
  0
CLASS
  1
SUN
  2
AcDbSun
  3
SCENEOE
 90
     1153
280
     0
281
     0
  0
CLASS
  1
ACDBPLACEHOLDER
  2
AcDbPlaceHolder
  3
ObjectDBX Classes
 90
        0
280
     0
281
     0
  0
CLASS
  1
LAYOUT
  2
AcDbLayout
  3
ObjectDBX Classes
 90
        0
280
     0
281
     0
  0
ENDSEC
  0
SECTION
  2
TABLES
  0
TABLE
  2
VPORT
  5
8
330
0
100
AcDbSymbolTable
 70
     1
  0
VPORT
  5
29
330
8
100
AcDbSymbolTableRecord
100
AcDbViewportTableRecord
  2
*Active
 70
     0
 10
0.0
 20
0.0
 11
1.0
 21
1.0
 12
215.9
 22
139.7
 13
0.0
 23
0.0
 14
10.0
 24
10.0
 15
10.0
 25
10.0
 16
0.0
 26
0.0
 36
1.0
 17
0.0
 27
0.0
 37
0.0
 40
279.4
 41
1.5454545455
 42
50.0
 43
0.0
 44
0.0
 50
0.0
 51
0.0
 71
     0
 72
  2000
 73
     1
 74
     3
 75
     0
 76
     0
 77
     0
 78
     0
281
     0
 65
     1
110
0.0
120
0.0
130
0.0
111
1.0
121
0.0
131
0.0
112
0.0
122
1.0
132
0.0
 79
     0
146
0.0
  0
ENDTAB
  0
TABLE
  2
LTYPE
  5
5
330
0
100
AcDbSymbolTable
 70
     6
  0
LTYPE
  5
14
330
5
100
AcDbSymbolTableRecord
100
AcDbLinetypeTableRecord
  2
ByBlock
 70
     0
  3

 72
    65
 73
     0
 40
0.0
  0
LTYPE
  5
15
330
5
100
AcDbSymbolTableRecord
100
AcDbLinetypeTableRecord
  2
ByLayer
 70
     0
  3

 72
    65
 73
     0
 40
0.0
  0
LTYPE
  5
16
330
5
100
AcDbSymbolTableRecord
100
AcDbLinetypeTableRecord
  2
Continuous
 70
     0
  3
Solid line
 72
    65
 73
     0
 40
0.0
  0
LTYPE
  5
6E
330
5
100
AcDbSymbolTableRecord
100
AcDbLinetypeTableRecord
  2
HIDDEN
 70
     0
  3
Hidden __ __ __ __ __ __ __ __ __ __ __ __ __ __
 72
    65
 73
     2
 40
1.905
 49
1.27
 74
     0
 49
-0.635
 74
     0
  0
LTYPE
  5
6F
330
5
100
AcDbSymbolTableRecord
100
AcDbLinetypeTableRecord
  2
PHANTOM
 70
     0
  3
Phantom ______  __  __  ______  __  __  ______
 72
    65
 73
     6
 40
12.7
 49
6.35
 74
     0
 49
-1.27
 74
     0
 49
1.27
 74
     0
 49
-1.27
 74
     0
 49
1.27
 74
     0
 49
-1.27
 74
     0
  0
LTYPE
  5
70
330
5
100
AcDbSymbolTableRecord
100
AcDbLinetypeTableRecord
  2
CENTER
 70
     0
  3
Center ____ _ ____ _ ____ _ ____ _ ____ _ ____
 72
    65
 73
     4
 40
10.16
 49
6.35
 74
     0
 49
-1.27
 74
     0
 49
1.27
 74
     0
 49
-1.27
 74
     0
  0
LTYPE
  5
71
330
5
100
AcDbSymbolTableRecord
100
AcDbLinetypeTableRecord
  2
CENTERX2
 70
     0
  3
Center (2x) ________  __  ________  __  _____
 72
    65
 73
     4
 40
20.32
 49
12.7
 74
     0
 49
-2.54
 74
     0
 49
2.54
 74
     0
 49
-2.54
 74
     0
  0
LTYPE
  5
72
330
5
100
AcDbSymbolTableRecord
100
AcDbLinetypeTableRecord
  2
DOT2
 70
     0
  3
Dot (.5x) ........................................
 72
    65
 73
     2
 40
0.635
 49
0.0
 74
     0
 49
-0.635
 74
     0
  0
ENDTAB
  0
TABLE
  2
LAYER
  5
2
330
0
100
AcDbSymbolTable
 70
     3
  0
LAYER
  5
10
330
2
100
AcDbSymbolTableRecord
100
AcDbLayerTableRecord
  2
0
 70
     0
 62
     7
  6
Continuous
370
    -3
390
F
  0
LAYER
  5
73
330
2
100
AcDbSymbolTableRecord
100
AcDbLayerTableRecord
  2
SLD-0
 70
     0
 62
   179
  6
Continuous
370
    -3
390
F
  0
LAYER
  5
74
330
2
100
AcDbSymbolTableRecord
100
AcDbLayerTableRecord
  2
EBENE_1
 70
     0
 62
   179
  6
Continuous
370
    -3
390
F
  0
ENDTAB
  0
TABLE
  2
STYLE
  5
3
330
0
100
AcDbSymbolTable
 70
     3
  0
STYLE
  5
11
330
3
100
AcDbSymbolTableRecord
100
AcDbTextStyleTableRecord
  2
Standard
 70
     0
 40
0.0
 41
1.0
 50
0.0
 71
     0
 42
4.9388888889
  3
txt
  4

  0
STYLE
  5
96
330
3
100
AcDbSymbolTableRecord
100
AcDbTextStyleTableRecord
  2
SLDTEXTSTYLE0
 70
     0
 40
0.0
 41
0.605
 50
0.0
 71
     0
 42
4.9388888889
  3
TXT
  4

  0
STYLE
  5
16E
330
3
100
AcDbSymbolTableRecord
100
AcDbTextStyleTableRecord
  2
SLDTEXTSTYLE1
 70
     0
 40
0.0
 41
0.75
 50
0.0
 71
     0
 42
4.9388888889
  3
TXT
  4

  0
ENDTAB
  0
TABLE
  2
VIEW
  5
6
330
0
100
AcDbSymbolTable
 70
     0
  0
ENDTAB
  0
TABLE
  2
UCS
  5
7
330
0
100
AcDbSymbolTable
 70
     0
  0
ENDTAB
  0
TABLE
  2
APPID
  5
9
330
0
100
AcDbSymbolTable
 70
     1
  0
APPID
  5
12
330
9
100
AcDbSymbolTableRecord
100
AcDbRegAppTableRecord
  2
ACAD
 70
     0
  0
ENDTAB
  0
TABLE
  2
DIMSTYLE
  5
A
330
0
100
AcDbSymbolTable
 70
     1
100
AcDbDimStyleTable
  0
DIMSTYLE
105
27
330
A
100
AcDbSymbolTableRecord
100
AcDbDimStyleTableRecord
  2
ISO-25
 70
     0
 41
2.5
 42
0.625
 43
3.75
 44
1.25
 73
     0
 74
     0
 77
     1
 78
     8
140
2.5
141
2.5
143
0.0393700787
147
0.625
171
     3
172
     1
178
     0
271
     2
272
     2
274
     3
278
    44
283
     0
284
     8
340
11
  0
ENDTAB
  0
TABLE
  2
BLOCK_RECORD
  5
1
330
0
100
AcDbSymbolTable
 70
    25
  0
BLOCK_RECORD
  5
1F
330
1
100
AcDbSymbolTableRecord
100
AcDbBlockTableRecord
  2
*Model_Space
340
22
  0
BLOCK_RECORD
  5
1B
330
1
100
AcDbSymbolTableRecord
100
AcDbBlockTableRecord
  2
*Paper_Space
340
1E
  0
BLOCK_RECORD
  5
23
330
1
100
AcDbSymbolTableRecord
100
AcDbBlockTableRecord
  2
*Paper_Space0
340
26
  0
BLOCK_RECORD
  5
75
330
1
100
AcDbSymbolTableRecord
100
AcDbBlockTableRecord
  2
Block1
340
0
102
{BLKREFS
331
16D
102
}
  0
BLOCK_RECORD
  5
8C
330
1
100
AcDbSymbolTableRecord
100
AcDbBlockTableRecord
  2
SW_BLOCK_DIMENSION_0
340
0
102
{BLKREFS
331
98
102
}
  0
BLOCK_RECORD
  5
8F
330
1
100
AcDbSymbolTableRecord
100
AcDbBlockTableRecord
  2
_ORIGIN
340
0
102
{BLKREFS
331
94
331
104
102
}
  0
BLOCK_RECORD
  5
99
330
1
100
AcDbSymbolTableRecord
100
AcDbBlockTableRecord
  2
SW_BLOCK_DIMENSION_1
340
0
102
{BLKREFS
331
A0
102
}
  0
BLOCK_RECORD
  5
A1
330
1
100
AcDbSymbolTableRecord
100
AcDbBlockTableRecord
  2
SW_BLOCK_DIMENSION_2
340
0
102
{BLKREFS
331
A8
102
}
  0
BLOCK_RECORD
  5
A9
330
1
100
AcDbSymbolTableRecord
100
AcDbBlockTableRecord
  2
SW_BLOCK_DIMENSION_3
340
0
102
{BLKREFS
331
B0
102
}
  0
BLOCK_RECORD
  5
B1
330
1
100
AcDbSymbolTableRecord
100
AcDbBlockTableRecord
  2
SW_BLOCK_DIMENSION_4
340
0
102
{BLKREFS
331
B8
102
}
  0
BLOCK_RECORD
  5
B9
330
1
100
AcDbSymbolTableRecord
100
AcDbBlockTableRecord
  2
SW_BLOCK_DIMENSION_5
340
0
102
{BLKREFS
331
C0
102
}
  0
BLOCK_RECORD
  5
C1
330
1
100
AcDbSymbolTableRecord
100
AcDbBlockTableRecord
  2
SW_BLOCK_DIMENSION_6
340
0
102
{BLKREFS
331
C8
102
}
  0
BLOCK_RECORD
  5
C9
330
1
100
AcDbSymbolTableRecord
100
AcDbBlockTableRecord
  2
SW_BLOCK_DIMENSION_7
340
0
102
{BLKREFS
331
D0
102
}
  0
BLOCK_RECORD
  5
D1
330
1
100
AcDbSymbolTableRecord
100
AcDbBlockTableRecord
  2
SW_BLOCK_DIMENSION_8
340
0
102
{BLKREFS
331
D8
102
}
  0
BLOCK_RECORD
  5
D9
330
1
100
AcDbSymbolTableRecord
100
AcDbBlockTableRecord
  2
SW_BLOCK_DIMENSION_9
340
0
102
{BLKREFS
331
E0
102
}
  0
BLOCK_RECORD
  5
E1
330
1
100
AcDbSymbolTableRecord
100
AcDbBlockTableRecord
  2
SW_BLOCK_DIMENSION_10
340
0
102
{BLKREFS
331
E8
102
}
  0
BLOCK_RECORD
  5
E9
330
1
100
AcDbSymbolTableRecord
100
AcDbBlockTableRecord
  2
SW_BLOCK_DIMENSION_11
340
0
102
{BLKREFS
331
F0
102
}
  0
BLOCK_RECORD
  5
F1
330
1
100
AcDbSymbolTableRecord
100
AcDbBlockTableRecord
  2
SW_BLOCK_DIMENSION_12
340
0
102
{BLKREFS
331
F8
102
}
  0
BLOCK_RECORD
  5
F9
330
1
100
AcDbSymbolTableRecord
100
AcDbBlockTableRecord
  2
SW_BLOCK_DIMENSION_13
340
0
102
{BLKREFS
331
100
102
}
  0
BLOCK_RECORD
  5
101
330
1
100
AcDbSymbolTableRecord
100
AcDbBlockTableRecord
  2
SW_BLOCK_DIMENSION_14
340
0
102
{BLKREFS
331
110
102
}
  0
BLOCK_RECORD
  5
111
330
1
100
AcDbSymbolTableRecord
100
AcDbBlockTableRecord
  2
SW_BLOCK_DIMENSION_15
340
0
102
{BLKREFS
331
121
102
}
  0
BLOCK_RECORD
  5
122
330
1
100
AcDbSymbolTableRecord
100
AcDbBlockTableRecord
  2
SW_BLOCK_DIMENSION_16
340
0
102
{BLKREFS
331
132
102
}
  0
BLOCK_RECORD
  5
133
330
1
100
AcDbSymbolTableRecord
100
AcDbBlockTableRecord
  2
SW_BLOCK_DIMENSION_17
340
0
102
{BLKREFS
331
143
102
}
  0
BLOCK_RECORD
  5
144
330
1
100
AcDbSymbolTableRecord
100
AcDbBlockTableRecord
  2
SW_BLOCK_DIMENSION_18
340
0
102
{BLKREFS
331
154
102
}
  0
BLOCK_RECORD
  5
155
330
1
100
AcDbSymbolTableRecord
100
AcDbBlockTableRecord
  2
SW_BLOCK_DIMENSION_19
340
0
102
{BLKREFS
331
165
102
}
  0
BLOCK_RECORD
  5
166
330
1
100
AcDbSymbolTableRecord
100
AcDbBlockTableRecord
  2
SW_NOTE_0
340
0
102
{BLKREFS
331
16B
102
}
  0
BLOCK_RECORD
  5
171
330
1
100
AcDbSymbolTableRecord
100
AcDbBlockTableRecord
  2
SW_NOTE_1
340
0
102
{BLKREFS
331
178
102
}
  0
ENDTAB
  0
ENDSEC
  0
SECTION
  2
BLOCKS
  0
BLOCK
  5
20
330
1F
100
AcDbEntity
  8
0
100
AcDbBlockBegin
  2
*Model_Space
 70
     0
 10
0.0
 20
0.0
 30
0.0
  3
*Model_Space
  1

  0
ENDBLK
  5
21
330
1F
100
AcDbEntity
  8
0
100
AcDbBlockEnd
  0
BLOCK
  5
1C
330
1B
100
AcDbEntity
 67
     1
  8
0
100
AcDbBlockBegin
  2
*Paper_Space
 70
     0
 10
0.0
 20
0.0
 30
0.0
  3
*Paper_Space
  1

  0
ENDBLK
  5
1D
330
1B
100
AcDbEntity
 67
     1
  8
0
100
AcDbBlockEnd
  0
BLOCK
  5
24
330
23
100
AcDbEntity
  8
0
100
AcDbBlockBegin
  2
*Paper_Space0
 70
     0
 10
0.0
 20
0.0
 30
0.0
  3
*Paper_Space0
  1

  0
ENDBLK
  5
25
330
23
100
AcDbEntity
  8
0
100
AcDbBlockEnd
  0
BLOCK
  5
76
330
75
100
AcDbEntity
  8
0
100
AcDbBlockBegin
  2
Block1
 70
     0
 10
0.0
 20
0.0
 30
0.0
  3
Block1
  1

  0
LINE
  5
78
330
75
100
AcDbEntity
  8
EBENE_1
100
AcDbLine
 10
363.6834285714
 20
41.3579706949
 30
0.0
 11
388.6834285714
 21
41.3579706949
 31
0.0
  0
LINE
  5
79
330
75
100
AcDbEntity
  8
EBENE_1
100
AcDbLine
 10
374.9034285714
 20
41.3579706949
 30
0.0
 11
374.9034285714
 21
171.3579706949
 31
0.0
  0
LINE
  5
7A
330
75
100
AcDbEntity
  8
EBENE_1
100
AcDbLine
 10
374.9034285714
 20
51.3579706949
 30
0.0
 11
384.9034285714
 21
51.3579706949
 31
0.0
  0
LINE
  5
7B
330
75
100
AcDbEntity
  8
EBENE_1
100
AcDbLine
 10
374.9034285714
 20
61.3579706949
 30
0.0
 11
384.9034285714
 21
61.3579706949
 31
0.0
  0
LINE
  5
7C
330
75
100
AcDbEntity
  8
EBENE_1
100
AcDbLine
 10
374.9034285714
 20
71.3579706949
 30
0.0
 11
384.9034285714
 21
71.3579706949
 31
0.0
  0
LINE
  5
7D
330
75
100
AcDbEntity
  8
EBENE_1
100
AcDbLine
 10
374.9034285714
 20
81.3579706949
 30
0.0
 11
384.9034285714
 21
81.3579706949
 31
0.0
  0
LINE
  5
7E
330
75
100
AcDbEntity
  8
EBENE_1
100
AcDbLine
 10
374.9034285714
 20
91.3579706949
 30
0.0
 11
384.9034285714
 21
91.3579706949
 31
0.0
  0
LINE
  5
7F
330
75
100
AcDbEntity
  8
EBENE_1
100
AcDbLine
 10
374.9034285714
 20
101.3579706949
 30
0.0
 11
384.9034285714
 21
101.3579706949
 31
0.0
  0
LINE
  5
80
330
75
100
AcDbEntity
  8
EBENE_1
100
AcDbLine
 10
374.9034285714
 20
111.3579706949
 30
0.0
 11
384.9034285714
 21
111.3579706949
 31
0.0
  0
LINE
  5
81
330
75
100
AcDbEntity
  8
EBENE_1
100
AcDbLine
 10
374.9034285714
 20
121.3579706949
 30
0.0
 11
384.9034285714
 21
121.3579706949
 31
0.0
  0
LINE
  5
82
330
75
100
AcDbEntity
  8
EBENE_1
100
AcDbLine
 10
374.9034285714
 20
131.3579706949
 30
0.0
 11
384.9034285714
 21
131.3579706949
 31
0.0
  0
LINE
  5
83
330
75
100
AcDbEntity
  8
EBENE_1
100
AcDbLine
 10
374.9034285714
 20
141.3579706949
 30
0.0
 11
384.9034285714
 21
141.3579706949
 31
0.0
  0
LINE
  5
84
330
75
100
AcDbEntity
  8
EBENE_1
100
AcDbLine
 10
374.9034285714
 20
151.3579706949
 30
0.0
 11
384.9034285714
 21
151.3579706949
 31
0.0
  0
LINE
  5
85
330
75
100
AcDbEntity
  8
EBENE_1
100
AcDbLine
 10
374.9034285714
 20
161.3579706949
 30
0.0
 11
384.9034285714
 21
161.3579706949
 31
0.0
  0
LINE
  5
86
330
75
100
AcDbEntity
  8
EBENE_1
100
AcDbLine
 10
374.9034285714
 20
171.3579706949
 30
0.0
 11
384.9034285714
 21
171.3579706949
 31
0.0
  0
LINE
  5
87
330
75
100
AcDbEntity
  8
EBENE_1
100
AcDbLine
 10
374.9034285714
 20
66.7579706949
 30
0.0
 11
362.9034285714
 21
66.7579706949
 31
0.0
  0
LINE
  5
88
330
75
100
AcDbEntity
  8
EBENE_1
100
AcDbLine
 10
374.9034285714
 20
92.1579706949
 30
0.0
 11
362.9034285714
 21
92.1579706949
 31
0.0
  0
LINE
  5
89
330
75
100
AcDbEntity
  8
EBENE_1
100
AcDbLine
 10
374.9034285714
 20
117.5579706949
 30
0.0
 11
362.9034285714
 21
117.5579706949
 31
0.0
  0
LINE
  5
8A
330
75
100
AcDbEntity
  8
EBENE_1
100
AcDbLine
 10
374.9034285714
 20
142.9579706949
 30
0.0
 11
362.9034285714
 21
142.9579706949
 31
0.0
  0
LINE
  5
8B
330
75
100
AcDbEntity
  8
EBENE_1
100
AcDbLine
 10
374.9034285714
 20
168.3579706949
 30
0.0
 11
362.9034285714
 21
168.3579706949
 31
0.0
  0
INSERT
  5
98
330
75
100
AcDbEntity
  8
EBENE_1
100
AcDbBlockReference
  2
SW_BLOCK_DIMENSION_0
 10
397.2096946378
 20
38.9914197296
 30
0.0
  0
INSERT
  5
A0
330
75
100
AcDbEntity
  8
EBENE_1
100
AcDbBlockReference
  2
SW_BLOCK_DIMENSION_1
 10
397.2096946378
 20
48.9914197296
 30
0.0
  0
INSERT
  5
A8
330
75
100
AcDbEntity
  8
EBENE_1
100
AcDbBlockReference
  2
SW_BLOCK_DIMENSION_2
 10
397.2096946378
 20
58.9914197296
 30
0.0
  0
INSERT
  5
B0
330
75
100
AcDbEntity
  8
EBENE_1
100
AcDbBlockReference
  2
SW_BLOCK_DIMENSION_3
 10
397.2096946378
 20
68.9914197296
 30
0.0
  0
INSERT
  5
B8
330
75
100
AcDbEntity
  8
EBENE_1
100
AcDbBlockReference
  2
SW_BLOCK_DIMENSION_4
 10
397.2096946378
 20
78.9914197296
 30
0.0
  0
INSERT
  5
C0
330
75
100
AcDbEntity
  8
EBENE_1
100
AcDbBlockReference
  2
SW_BLOCK_DIMENSION_5
 10
397.2096946378
 20
88.9914197296
 30
0.0
  0
INSERT
  5
C8
330
75
100
AcDbEntity
  8
EBENE_1
100
AcDbBlockReference
  2
SW_BLOCK_DIMENSION_6
 10
397.2096946378
 20
98.9914197296
 30
0.0
  0
INSERT
  5
D0
330
75
100
AcDbEntity
  8
EBENE_1
100
AcDbBlockReference
  2
SW_BLOCK_DIMENSION_7
 10
397.2096946378
 20
108.9914197296
 30
0.0
  0
INSERT
  5
D8
330
75
100
AcDbEntity
  8
EBENE_1
100
AcDbBlockReference
  2
SW_BLOCK_DIMENSION_8
 10
397.2096946378
 20
118.9914197296
 30
0.0
  0
INSERT
  5
E0
330
75
100
AcDbEntity
  8
EBENE_1
100
AcDbBlockReference
  2
SW_BLOCK_DIMENSION_9
 10
397.2096946378
 20
128.9914197296
 30
0.0
  0
INSERT
  5
E8
330
75
100
AcDbEntity
  8
EBENE_1
100
AcDbBlockReference
  2
SW_BLOCK_DIMENSION_10
 10
397.2096946378
 20
138.9914197296
 30
0.0
  0
INSERT
  5
F0
330
75
100
AcDbEntity
  8
EBENE_1
100
AcDbBlockReference
  2
SW_BLOCK_DIMENSION_11
 10
397.2096946378
 20
148.9914197296
 30
0.0
  0
INSERT
  5
F8
330
75
100
AcDbEntity
  8
EBENE_1
100
AcDbBlockReference
  2
SW_BLOCK_DIMENSION_12
 10
397.2096946378
 20
158.9914197296
 30
0.0
  0
INSERT
  5
100
330
75
100
AcDbEntity
  8
EBENE_1
100
AcDbBlockReference
  2
SW_BLOCK_DIMENSION_13
 10
397.2096946378
 20
168.9914197296
 30
0.0
  0
INSERT
  5
110
330
75
100
AcDbEntity
  8
EBENE_1
100
AcDbBlockReference
  2
SW_BLOCK_DIMENSION_14
 10
337.2987953614
 20
36.1691980072
 30
0.0
  0
INSERT
  5
121
330
75
100
AcDbEntity
  8
EBENE_1
100
AcDbBlockReference
  2
SW_BLOCK_DIMENSION_15
 10
337.2987953614
 20
61.5691980072
 30
0.0
  0
INSERT
  5
132
330
75
100
AcDbEntity
  8
EBENE_1
100
AcDbBlockReference
  2
SW_BLOCK_DIMENSION_16
 10
337.2987953614
 20
86.9691980072
 30
0.0
  0
INSERT
  5
143
330
75
100
AcDbEntity
  8
EBENE_1
100
AcDbBlockReference
  2
SW_BLOCK_DIMENSION_17
 10
337.2987953614
 20
112.3691980072
 30
0.0
  0
INSERT
  5
154
330
75
100
AcDbEntity
  8
EBENE_1
100
AcDbBlockReference
  2
SW_BLOCK_DIMENSION_18
 10
336.8284243759
 20
137.7691980072
 30
0.0
  0
INSERT
  5
165
330
75
100
AcDbEntity
  8
EBENE_1
100
AcDbBlockReference
  2
SW_BLOCK_DIMENSION_19
 10
337.2987953614
 20
163.1691980072
 30
0.0
  0
INSERT
  5
16B
330
75
100
AcDbEntity
  8
EBENE_1
 62
   179
100
AcDbBlockReference
  2
SW_NOTE_0
 10
337.5586028241
 20
28.8175207347
 30
0.0
  0
MTEXT
  5
16C
330
75
100
AcDbEntity
  8
EBENE_1
100
AcDbMText
 10
393.160738319
 20
33.5924424874
 30
0.0
 40
3.7041666667
 41
0.0
 71
     1
 72
     1
  1
mm
  7
SLDTEXTSTYLE0
 73
     1
 44
1.0
  0
ENDBLK
  5
77
330
75
100
AcDbEntity
  8
0
100
AcDbBlockEnd
  0
BLOCK
  5
8D
330
8C
100
AcDbEntity
  8
0
100
AcDbBlockBegin
  2
SW_BLOCK_DIMENSION_0
 70
     0
 10
0.0
 20
0.0
 30
0.0
  3
SW_BLOCK_DIMENSION_0
  1

  0
INSERT
  5
94
330
8C
100
AcDbEntity
  8
EBENE_1
 62
     0
100
AcDbBlockReference
  2
_ORIGIN
 10
-1.5805038061
 20
2.3665509652
 30
0.0
 41
0.9483022837
 42
0.9483022837
 50
0.0
  0
LINE
  5
95
330
8C
100
AcDbEntity
  8
EBENE_1
 62
     0
100
AcDbLine
 10
-6.5262660664
 20
2.3665509652
 30
0.0
 11
0.0
 21
2.3665509652
 31
0.0
  0
MTEXT
  5
97
330
8C
100
AcDbEntity
  8
EBENE_1
 62
     0
100
AcDbMText
 10
0.0
 20
4.0927900738
 30
0.0
 40
3.175
 41
0.0
 71
     1
 72
     1
  1
0
  7
SLDTEXTSTYLE0
 73
     1
 44
1.0
  0
ENDBLK
  5
8E
330
8C
100
AcDbEntity
  8
0
100
AcDbBlockEnd
  0
BLOCK
  5
90
330
8F
100
AcDbEntity
  8
0
100
AcDbBlockBegin
  2
_ORIGIN
 70
     0
 10
0.0
 20
0.0
 30
0.0
  3
_ORIGIN
  1

  0
CIRCLE
  5
92
330
8F
100
AcDbEntity
  8
0
  6
ByBlock
 62
     0
370
    -2
100
AcDbCircle
 10
0.0
 20
0.0
 30
0.0
 40
0.5
  0
LINE
  5
93
330
8F
100
AcDbEntity
  8
0
  6
ByBlock
 62
     0
370
    -2
100
AcDbLine
 10
0.0
 20
0.0
 30
0.0
 11
-1.0
 21
0.0
 31
0.0
  0
ENDBLK
  5
91
330
8F
100
AcDbEntity
  8
0
100
AcDbBlockEnd
  0
BLOCK
  5
9A
330
99
100
AcDbEntity
  8
0
100
AcDbBlockBegin
  2
SW_BLOCK_DIMENSION_1
 70
     0
 10
0.0
 20
0.0
 30
0.0
  3
SW_BLOCK_DIMENSION_1
  1

  0
SOLID
  5
9C
330
99
100
AcDbEntity
  8
EBENE_1
 62
     0
100
AcDbTrace
 10
-1.5805038061
 20
2.3665509652
 30
0.0
 11
-2.0546549479
 21
-0.7154314566
 31
0.0
 12
-1.1063526643
 22
-0.7154314566
 32
0.0
 13
-1.1063526643
 23
-0.7154314566
 33
0.0
  0
LINE
  5
9D
330
99
100
AcDbEntity
  8
EBENE_1
 62
     0
100
AcDbLine
 10
-10.3062660664
 20
2.3665509652
 30
0.0
 11
0.0
 21
2.3665509652
 31
0.0
  0
LINE
  5
9E
330
99
100
AcDbEntity
  8
EBENE_1
 62
     0
100
AcDbLine
 10
-1.5805038061
 20
-7.6334490348
 30
0.0
 11
-1.5805038061
 21
2.3665509652
 31
0.0
  0
MTEXT
  5
9F
330
99
100
AcDbEntity
  8
EBENE_1
 62
     0
100
AcDbMText
 10
0.0
 20
4.0927900738
 30
0.0
 40
3.175
 41
0.0
 71
     1
 72
     1
  1
10
  7
SLDTEXTSTYLE0
 73
     1
 44
1.0
  0
ENDBLK
  5
9B
330
99
100
AcDbEntity
  8
0
100
AcDbBlockEnd
  0
BLOCK
  5
A2
330
A1
100
AcDbEntity
  8
0
100
AcDbBlockBegin
  2
SW_BLOCK_DIMENSION_2
 70
     0
 10
0.0
 20
0.0
 30
0.0
  3
SW_BLOCK_DIMENSION_2
  1

  0
SOLID
  5
A4
330
A1
100
AcDbEntity
  8
EBENE_1
 62
     0
100
AcDbTrace
 10
-1.5805038061
 20
2.3665509652
 30
0.0
 11
-2.0546549479
 21
-0.7154314566
 31
0.0
 12
-1.1063526643
 22
-0.7154314566
 32
0.0
 13
-1.1063526643
 23
-0.7154314566
 33
0.0
  0
LINE
  5
A5
330
A1
100
AcDbEntity
  8
EBENE_1
 62
     0
100
AcDbLine
 10
-10.3062660664
 20
2.3665509652
 30
0.0
 11
0.0
 21
2.3665509652
 31
0.0
  0
LINE
  5
A6
330
A1
100
AcDbEntity
  8
EBENE_1
 62
     0
100
AcDbLine
 10
-1.5805038061
 20
-7.6334490348
 30
0.0
 11
-1.5805038061
 21
2.3665509652
 31
0.0
  0
MTEXT
  5
A7
330
A1
100
AcDbEntity
  8
EBENE_1
 62
     0
100
AcDbMText
 10
0.0
 20
4.0927900738
 30
0.0
 40
3.175
 41
0.0
 71
     1
 72
     1
  1
20
  7
SLDTEXTSTYLE0
 73
     1
 44
1.0
  0
ENDBLK
  5
A3
330
A1
100
AcDbEntity
  8
0
100
AcDbBlockEnd
  0
BLOCK
  5
AA
330
A9
100
AcDbEntity
  8
0
100
AcDbBlockBegin
  2
SW_BLOCK_DIMENSION_3
 70
     0
 10
0.0
 20
0.0
 30
0.0
  3
SW_BLOCK_DIMENSION_3
  1

  0
SOLID
  5
AC
330
A9
100
AcDbEntity
  8
EBENE_1
 62
     0
100
AcDbTrace
 10
-1.5805038061
 20
2.3665509652
 30
0.0
 11
-2.0546549479
 21
-0.7154314566
 31
0.0
 12
-1.1063526643
 22
-0.7154314566
 32
0.0
 13
-1.1063526643
 23
-0.7154314566
 33
0.0
  0
LINE
  5
AD
330
A9
100
AcDbEntity
  8
EBENE_1
 62
     0
100
AcDbLine
 10
-10.3062660664
 20
2.3665509652
 30
0.0
 11
0.0
 21
2.3665509652
 31
0.0
  0
LINE
  5
AE
330
A9
100
AcDbEntity
  8
EBENE_1
 62
     0
100
AcDbLine
 10
-1.5805038061
 20
-7.6334490348
 30
0.0
 11
-1.5805038061
 21
2.3665509652
 31
0.0
  0
MTEXT
  5
AF
330
A9
100
AcDbEntity
  8
EBENE_1
 62
     0
100
AcDbMText
 10
0.0
 20
4.0927900738
 30
0.0
 40
3.175
 41
0.0
 71
     1
 72
     1
  1
30
  7
SLDTEXTSTYLE0
 73
     1
 44
1.0
  0
ENDBLK
  5
AB
330
A9
100
AcDbEntity
  8
0
100
AcDbBlockEnd
  0
BLOCK
  5
B2
330
B1
100
AcDbEntity
  8
0
100
AcDbBlockBegin
  2
SW_BLOCK_DIMENSION_4
 70
     0
 10
0.0
 20
0.0
 30
0.0
  3
SW_BLOCK_DIMENSION_4
  1

  0
SOLID
  5
B4
330
B1
100
AcDbEntity
  8
EBENE_1
 62
     0
100
AcDbTrace
 10
-1.5805038061
 20
2.3665509652
 30
0.0
 11
-2.0546549479
 21
-0.7154314566
 31
0.0
 12
-1.1063526643
 22
-0.7154314566
 32
0.0
 13
-1.1063526643
 23
-0.7154314566
 33
0.0
  0
LINE
  5
B5
330
B1
100
AcDbEntity
  8
EBENE_1
 62
     0
100
AcDbLine
 10
-10.3062660664
 20
2.3665509652
 30
0.0
 11
0.0
 21
2.3665509652
 31
0.0
  0
LINE
  5
B6
330
B1
100
AcDbEntity
  8
EBENE_1
 62
     0
100
AcDbLine
 10
-1.5805038061
 20
-7.6334490348
 30
0.0
 11
-1.5805038061
 21
2.3665509652
 31
0.0
  0
MTEXT
  5
B7
330
B1
100
AcDbEntity
  8
EBENE_1
 62
     0
100
AcDbMText
 10
0.0
 20
4.0927900738
 30
0.0
 40
3.175
 41
0.0
 71
     1
 72
     1
  1
40
  7
SLDTEXTSTYLE0
 73
     1
 44
1.0
  0
ENDBLK
  5
B3
330
B1
100
AcDbEntity
  8
0
100
AcDbBlockEnd
  0
BLOCK
  5
BA
330
B9
100
AcDbEntity
  8
0
100
AcDbBlockBegin
  2
SW_BLOCK_DIMENSION_5
 70
     0
 10
0.0
 20
0.0
 30
0.0
  3
SW_BLOCK_DIMENSION_5
  1

  0
SOLID
  5
BC
330
B9
100
AcDbEntity
  8
EBENE_1
 62
     0
100
AcDbTrace
 10
-1.5805038061
 20
2.3665509652
 30
0.0
 11
-2.0546549479
 21
-0.7154314566
 31
0.0
 12
-1.1063526643
 22
-0.7154314566
 32
0.0
 13
-1.1063526643
 23
-0.7154314566
 33
0.0
  0
LINE
  5
BD
330
B9
100
AcDbEntity
  8
EBENE_1
 62
     0
100
AcDbLine
 10
-10.3062660664
 20
2.3665509652
 30
0.0
 11
0.0
 21
2.3665509652
 31
0.0
  0
LINE
  5
BE
330
B9
100
AcDbEntity
  8
EBENE_1
 62
     0
100
AcDbLine
 10
-1.5805038061
 20
-7.6334490348
 30
0.0
 11
-1.5805038061
 21
2.3665509652
 31
0.0
  0
MTEXT
  5
BF
330
B9
100
AcDbEntity
  8
EBENE_1
 62
     0
100
AcDbMText
 10
0.0
 20
4.0927900738
 30
0.0
 40
3.175
 41
0.0
 71
     1
 72
     1
  1
50
  7
SLDTEXTSTYLE0
 73
     1
 44
1.0
  0
ENDBLK
  5
BB
330
B9
100
AcDbEntity
  8
0
100
AcDbBlockEnd
  0
BLOCK
  5
C2
330
C1
100
AcDbEntity
  8
0
100
AcDbBlockBegin
  2
SW_BLOCK_DIMENSION_6
 70
     0
 10
0.0
 20
0.0
 30
0.0
  3
SW_BLOCK_DIMENSION_6
  1

  0
SOLID
  5
C4
330
C1
100
AcDbEntity
  8
EBENE_1
 62
     0
100
AcDbTrace
 10
-1.5805038061
 20
2.3665509652
 30
0.0
 11
-2.0546549479
 21
-0.7154314566
 31
0.0
 12
-1.1063526643
 22
-0.7154314566
 32
0.0
 13
-1.1063526643
 23
-0.7154314566
 33
0.0
  0
LINE
  5
C5
330
C1
100
AcDbEntity
  8
EBENE_1
 62
     0
100
AcDbLine
 10
-10.3062660664
 20
2.3665509652
 30
0.0
 11
0.0
 21
2.3665509652
 31
0.0
  0
LINE
  5
C6
330
C1
100
AcDbEntity
  8
EBENE_1
 62
     0
100
AcDbLine
 10
-1.5805038061
 20
-7.6334490348
 30
0.0
 11
-1.5805038061
 21
2.3665509652
 31
0.0
  0
MTEXT
  5
C7
330
C1
100
AcDbEntity
  8
EBENE_1
 62
     0
100
AcDbMText
 10
0.0
 20
4.0927900738
 30
0.0
 40
3.175
 41
0.0
 71
     1
 72
     1
  1
60
  7
SLDTEXTSTYLE0
 73
     1
 44
1.0
  0
ENDBLK
  5
C3
330
C1
100
AcDbEntity
  8
0
100
AcDbBlockEnd
  0
BLOCK
  5
CA
330
C9
100
AcDbEntity
  8
0
100
AcDbBlockBegin
  2
SW_BLOCK_DIMENSION_7
 70
     0
 10
0.0
 20
0.0
 30
0.0
  3
SW_BLOCK_DIMENSION_7
  1

  0
SOLID
  5
CC
330
C9
100
AcDbEntity
  8
EBENE_1
 62
     0
100
AcDbTrace
 10
-1.5805038061
 20
2.3665509652
 30
0.0
 11
-2.0546549479
 21
-0.7154314566
 31
0.0
 12
-1.1063526643
 22
-0.7154314566
 32
0.0
 13
-1.1063526643
 23
-0.7154314566
 33
0.0
  0
LINE
  5
CD
330
C9
100
AcDbEntity
  8
EBENE_1
 62
     0
100
AcDbLine
 10
-10.3062660664
 20
2.3665509652
 30
0.0
 11
0.0
 21
2.3665509652
 31
0.0
  0
LINE
  5
CE
330
C9
100
AcDbEntity
  8
EBENE_1
 62
     0
100
AcDbLine
 10
-1.5805038061
 20
-7.6334490348
 30
0.0
 11
-1.5805038061
 21
2.3665509652
 31
0.0
  0
MTEXT
  5
CF
330
C9
100
AcDbEntity
  8
EBENE_1
 62
     0
100
AcDbMText
 10
0.0
 20
4.0927900738
 30
0.0
 40
3.175
 41
0.0
 71
     1
 72
     1
  1
70
  7
SLDTEXTSTYLE0
 73
     1
 44
1.0
  0
ENDBLK
  5
CB
330
C9
100
AcDbEntity
  8
0
100
AcDbBlockEnd
  0
BLOCK
  5
D2
330
D1
100
AcDbEntity
  8
0
100
AcDbBlockBegin
  2
SW_BLOCK_DIMENSION_8
 70
     0
 10
0.0
 20
0.0
 30
0.0
  3
SW_BLOCK_DIMENSION_8
  1

  0
SOLID
  5
D4
330
D1
100
AcDbEntity
  8
EBENE_1
 62
     0
100
AcDbTrace
 10
-1.5805038061
 20
2.3665509652
 30
0.0
 11
-2.0546549479
 21
-0.7154314566
 31
0.0
 12
-1.1063526643
 22
-0.7154314566
 32
0.0
 13
-1.1063526643
 23
-0.7154314566
 33
0.0
  0
LINE
  5
D5
330
D1
100
AcDbEntity
  8
EBENE_1
 62
     0
100
AcDbLine
 10
-10.3062660664
 20
2.3665509652
 30
0.0
 11
0.0
 21
2.3665509652
 31
0.0
  0
LINE
  5
D6
330
D1
100
AcDbEntity
  8
EBENE_1
 62
     0
100
AcDbLine
 10
-1.5805038061
 20
-7.6334490348
 30
0.0
 11
-1.5805038061
 21
2.3665509652
 31
0.0
  0
MTEXT
  5
D7
330
D1
100
AcDbEntity
  8
EBENE_1
 62
     0
100
AcDbMText
 10
0.0
 20
4.0927900738
 30
0.0
 40
3.175
 41
0.0
 71
     1
 72
     1
  1
80
  7
SLDTEXTSTYLE0
 73
     1
 44
1.0
  0
ENDBLK
  5
D3
330
D1
100
AcDbEntity
  8
0
100
AcDbBlockEnd
  0
BLOCK
  5
DA
330
D9
100
AcDbEntity
  8
0
100
AcDbBlockBegin
  2
SW_BLOCK_DIMENSION_9
 70
     0
 10
0.0
 20
0.0
 30
0.0
  3
SW_BLOCK_DIMENSION_9
  1

  0
SOLID
  5
DC
330
D9
100
AcDbEntity
  8
EBENE_1
 62
     0
100
AcDbTrace
 10
-1.5805038061
 20
2.3665509652
 30
0.0
 11
-2.0546549479
 21
-0.7154314566
 31
0.0
 12
-1.1063526643
 22
-0.7154314566
 32
0.0
 13
-1.1063526643
 23
-0.7154314566
 33
0.0
  0
LINE
  5
DD
330
D9
100
AcDbEntity
  8
EBENE_1
 62
     0
100
AcDbLine
 10
-10.3062660664
 20
2.3665509652
 30
0.0
 11
0.0
 21
2.3665509652
 31
0.0
  0
LINE
  5
DE
330
D9
100
AcDbEntity
  8
EBENE_1
 62
     0
100
AcDbLine
 10
-1.5805038061
 20
-7.6334490348
 30
0.0
 11
-1.5805038061
 21
2.3665509652
 31
0.0
  0
MTEXT
  5
DF
330
D9
100
AcDbEntity
  8
EBENE_1
 62
     0
100
AcDbMText
 10
0.0
 20
4.0927900738
 30
0.0
 40
3.175
 41
0.0
 71
     1
 72
     1
  1
90
  7
SLDTEXTSTYLE0
 73
     1
 44
1.0
  0
ENDBLK
  5
DB
330
D9
100
AcDbEntity
  8
0
100
AcDbBlockEnd
  0
BLOCK
  5
E2
330
E1
100
AcDbEntity
  8
0
100
AcDbBlockBegin
  2
SW_BLOCK_DIMENSION_10
 70
     0
 10
0.0
 20
0.0
 30
0.0
  3
SW_BLOCK_DIMENSION_10
  1

  0
SOLID
  5
E4
330
E1
100
AcDbEntity
  8
EBENE_1
 62
     0
100
AcDbTrace
 10
-1.5805038061
 20
2.3665509652
 30
0.0
 11
-2.0546549479
 21
-0.7154314566
 31
0.0
 12
-1.1063526643
 22
-0.7154314566
 32
0.0
 13
-1.1063526643
 23
-0.7154314566
 33
0.0
  0
LINE
  5
E5
330
E1
100
AcDbEntity
  8
EBENE_1
 62
     0
100
AcDbLine
 10
-10.3062660664
 20
2.3665509652
 30
0.0
 11
0.0
 21
2.3665509652
 31
0.0
  0
LINE
  5
E6
330
E1
100
AcDbEntity
  8
EBENE_1
 62
     0
100
AcDbLine
 10
-1.5805038061
 20
-7.6334490348
 30
0.0
 11
-1.5805038061
 21
2.3665509652
 31
0.0
  0
MTEXT
  5
E7
330
E1
100
AcDbEntity
  8
EBENE_1
 62
     0
100
AcDbMText
 10
0.0
 20
4.0927900738
 30
0.0
 40
3.175
 41
0.0
 71
     1
 72
     1
  1
100
  7
SLDTEXTSTYLE0
 73
     1
 44
1.0
  0
ENDBLK
  5
E3
330
E1
100
AcDbEntity
  8
0
100
AcDbBlockEnd
  0
BLOCK
  5
EA
330
E9
100
AcDbEntity
  8
0
100
AcDbBlockBegin
  2
SW_BLOCK_DIMENSION_11
 70
     0
 10
0.0
 20
0.0
 30
0.0
  3
SW_BLOCK_DIMENSION_11
  1

  0
SOLID
  5
EC
330
E9
100
AcDbEntity
  8
EBENE_1
 62
     0
100
AcDbTrace
 10
-1.5805038061
 20
2.3665509652
 30
0.0
 11
-2.0546549479
 21
-0.7154314566
 31
0.0
 12
-1.1063526643
 22
-0.7154314566
 32
0.0
 13
-1.1063526643
 23
-0.7154314566
 33
0.0
  0
LINE
  5
ED
330
E9
100
AcDbEntity
  8
EBENE_1
 62
     0
100
AcDbLine
 10
-10.3062660664
 20
2.3665509652
 30
0.0
 11
0.0
 21
2.3665509652
 31
0.0
  0
LINE
  5
EE
330
E9
100
AcDbEntity
  8
EBENE_1
 62
     0
100
AcDbLine
 10
-1.5805038061
 20
-7.6334490348
 30
0.0
 11
-1.5805038061
 21
2.3665509652
 31
0.0
  0
MTEXT
  5
EF
330
E9
100
AcDbEntity
  8
EBENE_1
 62
     0
100
AcDbMText
 10
0.0
 20
4.0927900738
 30
0.0
 40
3.175
 41
0.0
 71
     1
 72
     1
  1
110
  7
SLDTEXTSTYLE0
 73
     1
 44
1.0
  0
ENDBLK
  5
EB
330
E9
100
AcDbEntity
  8
0
100
AcDbBlockEnd
  0
BLOCK
  5
F2
330
F1
100
AcDbEntity
  8
0
100
AcDbBlockBegin
  2
SW_BLOCK_DIMENSION_12
 70
     0
 10
0.0
 20
0.0
 30
0.0
  3
SW_BLOCK_DIMENSION_12
  1

  0
SOLID
  5
F4
330
F1
100
AcDbEntity
  8
EBENE_1
 62
     0
100
AcDbTrace
 10
-1.5805038061
 20
2.3665509652
 30
0.0
 11
-2.0546549479
 21
-0.7154314566
 31
0.0
 12
-1.1063526643
 22
-0.7154314566
 32
0.0
 13
-1.1063526643
 23
-0.7154314566
 33
0.0
  0
LINE
  5
F5
330
F1
100
AcDbEntity
  8
EBENE_1
 62
     0
100
AcDbLine
 10
-10.3062660664
 20
2.3665509652
 30
0.0
 11
0.0
 21
2.3665509652
 31
0.0
  0
LINE
  5
F6
330
F1
100
AcDbEntity
  8
EBENE_1
 62
     0
100
AcDbLine
 10
-1.5805038061
 20
-7.6334490348
 30
0.0
 11
-1.5805038061
 21
2.3665509652
 31
0.0
  0
MTEXT
  5
F7
330
F1
100
AcDbEntity
  8
EBENE_1
 62
     0
100
AcDbMText
 10
0.0
 20
4.0927900738
 30
0.0
 40
3.175
 41
0.0
 71
     1
 72
     1
  1
120
  7
SLDTEXTSTYLE0
 73
     1
 44
1.0
  0
ENDBLK
  5
F3
330
F1
100
AcDbEntity
  8
0
100
AcDbBlockEnd
  0
BLOCK
  5
FA
330
F9
100
AcDbEntity
  8
0
100
AcDbBlockBegin
  2
SW_BLOCK_DIMENSION_13
 70
     0
 10
0.0
 20
0.0
 30
0.0
  3
SW_BLOCK_DIMENSION_13
  1

  0
SOLID
  5
FC
330
F9
100
AcDbEntity
  8
EBENE_1
 62
     0
100
AcDbTrace
 10
-1.5805038061
 20
2.3665509652
 30
0.0
 11
-2.0546549479
 21
-0.7154314566
 31
0.0
 12
-1.1063526643
 22
-0.7154314566
 32
0.0
 13
-1.1063526643
 23
-0.7154314566
 33
0.0
  0
LINE
  5
FD
330
F9
100
AcDbEntity
  8
EBENE_1
 62
     0
100
AcDbLine
 10
-10.3062660664
 20
2.3665509652
 30
0.0
 11
0.0
 21
2.3665509652
 31
0.0
  0
LINE
  5
FE
330
F9
100
AcDbEntity
  8
EBENE_1
 62
     0
100
AcDbLine
 10
-1.5805038061
 20
-7.6334490348
 30
0.0
 11
-1.5805038061
 21
2.3665509652
 31
0.0
  0
MTEXT
  5
FF
330
F9
100
AcDbEntity
  8
EBENE_1
 62
     0
100
AcDbMText
 10
0.0
 20
4.0927900738
 30
0.0
 40
3.175
 41
0.0
 71
     1
 72
     1
  1
130
  7
SLDTEXTSTYLE0
 73
     1
 44
1.0
  0
ENDBLK
  5
FB
330
F9
100
AcDbEntity
  8
0
100
AcDbBlockEnd
  0
BLOCK
  5
102
330
101
100
AcDbEntity
  8
0
100
AcDbBlockBegin
  2
SW_BLOCK_DIMENSION_14
 70
     0
 10
0.0
 20
0.0
 30
0.0
  3
SW_BLOCK_DIMENSION_14
  1

  0
INSERT
  5
104
330
101
100
AcDbEntity
  8
EBENE_1
 62
     0
100
AcDbBlockReference
  2
_ORIGIN
 10
16.3971707594
 20
5.1887726877
 30
0.0
 41
0.9483022837
 42
0.9483022837
 50
0.0
  0
LINE
  5
105
330
101
100
AcDbEntity
  8
EBENE_1
 62
     0
100
AcDbLine
 10
3.2925925916
 20
9.671990294
 30
0.0
 11
2.2342592711
 21
9.671990294
 31
0.0
  0
LINE
  5
106
330
101
100
AcDbEntity
  8
EBENE_1
 62
     0
100
AcDbLine
 10
2.2342592711
 20
9.671990294
 30
0.0
 11
2.2342592711
 21
4.9388883635
 31
0.0
  0
LINE
  5
107
330
101
100
AcDbEntity
  8
EBENE_1
 62
     0
100
AcDbLine
 10
2.2342592711
 20
4.9388883635
 30
0.0
 11
3.2925925916
 21
4.9388883635
 31
0.0
  0
LINE
  5
108
330
101
100
AcDbEntity
  8
EBENE_1
 62
     0
100
AcDbLine
 10
11.5240741288
 20
9.671990294
 30
0.0
 11
12.5824074494
 21
9.671990294
 31
0.0
  0
LINE
  5
109
330
101
100
AcDbEntity
  8
EBENE_1
 62
     0
100
AcDbLine
 10
12.5824074494
 20
9.671990294
 30
0.0
 11
12.5824074494
 21
4.9388883635
 31
0.0
  0
LINE
  5
10A
330
101
100
AcDbEntity
  8
EBENE_1
 62
     0
100
AcDbLine
 10
12.5824074494
 20
4.9388883635
 30
0.0
 11
11.5240741288
 21
4.9388883635
 31
0.0
  0
LINE
  5
10B
330
101
100
AcDbEntity
  8
EBENE_1
 62
     0
100
AcDbLine
 10
24.38463321
 20
5.1887726877
 30
0.0
 11
14.8166669533
 21
5.1887726877
 31
0.0
  0
MTEXT
  5
10C
330
101
100
AcDbEntity
  8
EBENE_1
 62
     0
100
AcDbMText
 10
1.190625
 20
4.0927900738
 30
0.0
 40
3.175
 41
0.0
 71
     1
 72
     1
  1

  7
SLDTEXTSTYLE0
 73
     1
 44
1.0
  0
MTEXT
  5
10D
330
101
100
AcDbEntity
  8
EBENE_1
 62
     0
100
AcDbMText
 10
3.2925925916
 20
9.0316784373
 30
0.0
 40
3.175
 41
0.0
 71
     1
 72
     1
  1
0,00
  7
SLDTEXTSTYLE0
 73
     1
 44
1.0
  0
MTEXT
  5
10E
330
101
100
AcDbEntity
  8
EBENE_1
 62
     0
100
AcDbMText
 10
6.2324074097
 20
4.0927898409
 30
0.0
 40
3.175
 41
0.0
 71
     1
 72
     1
  1
0
  7
SLDTEXTSTYLE0
 73
     1
 44
1.0
  0
MTEXT
  5
10F
330
101
100
AcDbEntity
  8
EBENE_1
 62
     0
100
AcDbMText
 10
14.8313658863
 20
4.0927900738
 30
0.0
 40
3.175
 41
0.0
 71
     1
 72
     1
  1

  7
SLDTEXTSTYLE0
 73
     1
 44
1.0
  0
ENDBLK
  5
103
330
101
100
AcDbEntity
  8
0
100
AcDbBlockEnd
  0
BLOCK
  5
112
330
111
100
AcDbEntity
  8
0
100
AcDbBlockBegin
  2
SW_BLOCK_DIMENSION_15
 70
     0
 10
0.0
 20
0.0
 30
0.0
  3
SW_BLOCK_DIMENSION_15
  1

  0
SOLID
  5
114
330
111
100
AcDbEntity
  8
EBENE_1
 62
     0
100
AcDbTrace
 10
16.3971707594
 20
5.1887726877
 30
0.0
 11
15.9230196175
 21
2.1067902658
 31
0.0
 12
16.8713219012
 22
2.1067902658
 32
0.0
 13
16.8713219012
 23
2.1067902658
 33
0.0
  0
LINE
  5
115
330
111
100
AcDbEntity
  8
EBENE_1
 62
     0
100
AcDbLine
 10
3.2925925916
 20
9.671990294
 30
0.0
 11
2.2342592711
 21
9.671990294
 31
0.0
  0
LINE
  5
116
330
111
100
AcDbEntity
  8
EBENE_1
 62
     0
100
AcDbLine
 10
2.2342592711
 20
9.671990294
 30
0.0
 11
2.2342592711
 21
4.9388883635
 31
0.0
  0
LINE
  5
117
330
111
100
AcDbEntity
  8
EBENE_1
 62
     0
100
AcDbLine
 10
2.2342592711
 20
4.9388883635
 30
0.0
 11
3.2925925916
 21
4.9388883635
 31
0.0
  0
LINE
  5
118
330
111
100
AcDbEntity
  8
EBENE_1
 62
     0
100
AcDbLine
 10
11.5240741288
 20
9.671990294
 30
0.0
 11
12.5824074494
 21
9.671990294
 31
0.0
  0
LINE
  5
119
330
111
100
AcDbEntity
  8
EBENE_1
 62
     0
100
AcDbLine
 10
12.5824074494
 20
9.671990294
 30
0.0
 11
12.5824074494
 21
4.9388883635
 31
0.0
  0
LINE
  5
11A
330
111
100
AcDbEntity
  8
EBENE_1
 62
     0
100
AcDbLine
 10
12.5824074494
 20
4.9388883635
 30
0.0
 11
11.5240741288
 21
4.9388883635
 31
0.0
  0
LINE
  5
11B
330
111
100
AcDbEntity
  8
EBENE_1
 62
     0
100
AcDbLine
 10
23.60463321
 20
5.1887726877
 30
0.0
 11
14.8166669533
 21
5.1887726877
 31
0.0
  0
LINE
  5
11C
330
111
100
AcDbEntity
  8
EBENE_1
 62
     0
100
AcDbLine
 10
16.3971707594
 20
-20.2112273123
 30
0.0
 11
16.3971707594
 21
5.1887726877
 31
0.0
  0
MTEXT
  5
11D
330
111
100
AcDbEntity
  8
EBENE_1
 62
     0
100
AcDbMText
 10
1.190625
 20
4.0927900738
 30
0.0
 40
3.175
 41
0.0
 71
     1
 72
     1
  1

  7
SLDTEXTSTYLE0
 73
     1
 44
1.0
  0
MTEXT
  5
11E
330
111
100
AcDbEntity
  8
EBENE_1
 62
     0
100
AcDbMText
 10
3.2925925916
 20
9.0316784373
 30
0.0
 40
3.175
 41
0.0
 71
     1
 72
     1
  1
1,00
  7
SLDTEXTSTYLE0
 73
     1
 44
1.0
  0
MTEXT
  5
11F
330
111
100
AcDbEntity
  8
EBENE_1
 62
     0
100
AcDbMText
 10
2.1166665247
 20
4.0927898409
 30
0.0
 40
3.175
 41
0.0
 71
     1
 72
     1
  1
25,40
  7
SLDTEXTSTYLE0
 73
     1
 44
1.0
  0
MTEXT
  5
120
330
111
100
AcDbEntity
  8
EBENE_1
 62
     0
100
AcDbMText
 10
14.8313658863
 20
4.0927900738
 30
0.0
 40
3.175
 41
0.0
 71
     1
 72
     1
  1

  7
SLDTEXTSTYLE0
 73
     1
 44
1.0
  0
ENDBLK
  5
113
330
111
100
AcDbEntity
  8
0
100
AcDbBlockEnd
  0
BLOCK
  5
123
330
122
100
AcDbEntity
  8
0
100
AcDbBlockBegin
  2
SW_BLOCK_DIMENSION_16
 70
     0
 10
0.0
 20
0.0
 30
0.0
  3
SW_BLOCK_DIMENSION_16
  1

  0
SOLID
  5
125
330
122
100
AcDbEntity
  8
EBENE_1
 62
     0
100
AcDbTrace
 10
16.3971707594
 20
5.1887726877
 30
0.0
 11
15.9230196175
 21
2.1067902658
 31
0.0
 12
16.8713219012
 22
2.1067902658
 32
0.0
 13
16.8713219012
 23
2.1067902658
 33
0.0
  0
LINE
  5
126
330
122
100
AcDbEntity
  8
EBENE_1
 62
     0
100
AcDbLine
 10
3.2925925916
 20
9.671990294
 30
0.0
 11
2.2342592711
 21
9.671990294
 31
0.0
  0
LINE
  5
127
330
122
100
AcDbEntity
  8
EBENE_1
 62
     0
100
AcDbLine
 10
2.2342592711
 20
9.671990294
 30
0.0
 11
2.2342592711
 21
4.9388883635
 31
0.0
  0
LINE
  5
128
330
122
100
AcDbEntity
  8
EBENE_1
 62
     0
100
AcDbLine
 10
2.2342592711
 20
4.9388883635
 30
0.0
 11
3.2925925916
 21
4.9388883635
 31
0.0
  0
LINE
  5
129
330
122
100
AcDbEntity
  8
EBENE_1
 62
     0
100
AcDbLine
 10
11.5240741288
 20
9.671990294
 30
0.0
 11
12.5824074494
 21
9.671990294
 31
0.0
  0
LINE
  5
12A
330
122
100
AcDbEntity
  8
EBENE_1
 62
     0
100
AcDbLine
 10
12.5824074494
 20
9.671990294
 30
0.0
 11
12.5824074494
 21
4.9388883635
 31
0.0
  0
LINE
  5
12B
330
122
100
AcDbEntity
  8
EBENE_1
 62
     0
100
AcDbLine
 10
12.5824074494
 20
4.9388883635
 30
0.0
 11
11.5240741288
 21
4.9388883635
 31
0.0
  0
LINE
  5
12C
330
122
100
AcDbEntity
  8
EBENE_1
 62
     0
100
AcDbLine
 10
23.60463321
 20
5.1887726877
 30
0.0
 11
14.8166669533
 21
5.1887726877
 31
0.0
  0
LINE
  5
12D
330
122
100
AcDbEntity
  8
EBENE_1
 62
     0
100
AcDbLine
 10
16.3971707594
 20
-20.2112273123
 30
0.0
 11
16.3971707594
 21
5.1887726877
 31
0.0
  0
MTEXT
  5
12E
330
122
100
AcDbEntity
  8
EBENE_1
 62
     0
100
AcDbMText
 10
1.190625
 20
4.0927900738
 30
0.0
 40
3.175
 41
0.0
 71
     1
 72
     1
  1

  7
SLDTEXTSTYLE0
 73
     1
 44
1.0
  0
MTEXT
  5
12F
330
122
100
AcDbEntity
  8
EBENE_1
 62
     0
100
AcDbMText
 10
3.2925925916
 20
9.0316784373
 30
0.0
 40
3.175
 41
0.0
 71
     1
 72
     1
  1
2,00
  7
SLDTEXTSTYLE0
 73
     1
 44
1.0
  0
MTEXT
  5
130
330
122
100
AcDbEntity
  8
EBENE_1
 62
     0
100
AcDbMText
 10
2.1166665247
 20
4.0927898409
 30
0.0
 40
3.175
 41
0.0
 71
     1
 72
     1
  1
50,80
  7
SLDTEXTSTYLE0
 73
     1
 44
1.0
  0
MTEXT
  5
131
330
122
100
AcDbEntity
  8
EBENE_1
 62
     0
100
AcDbMText
 10
14.8313658863
 20
4.0927900738
 30
0.0
 40
3.175
 41
0.0
 71
     1
 72
     1
  1

  7
SLDTEXTSTYLE0
 73
     1
 44
1.0
  0
ENDBLK
  5
124
330
122
100
AcDbEntity
  8
0
100
AcDbBlockEnd
  0
BLOCK
  5
134
330
133
100
AcDbEntity
  8
0
100
AcDbBlockBegin
  2
SW_BLOCK_DIMENSION_17
 70
     0
 10
0.0
 20
0.0
 30
0.0
  3
SW_BLOCK_DIMENSION_17
  1

  0
SOLID
  5
136
330
133
100
AcDbEntity
  8
EBENE_1
 62
     0
100
AcDbTrace
 10
16.3971707594
 20
5.1887726877
 30
0.0
 11
15.9230196175
 21
2.1067902658
 31
0.0
 12
16.8713219012
 22
2.1067902658
 32
0.0
 13
16.8713219012
 23
2.1067902658
 33
0.0
  0
LINE
  5
137
330
133
100
AcDbEntity
  8
EBENE_1
 62
     0
100
AcDbLine
 10
3.2925925916
 20
9.671990294
 30
0.0
 11
2.2342592711
 21
9.671990294
 31
0.0
  0
LINE
  5
138
330
133
100
AcDbEntity
  8
EBENE_1
 62
     0
100
AcDbLine
 10
2.2342592711
 20
9.671990294
 30
0.0
 11
2.2342592711
 21
4.9388883635
 31
0.0
  0
LINE
  5
139
330
133
100
AcDbEntity
  8
EBENE_1
 62
     0
100
AcDbLine
 10
2.2342592711
 20
4.9388883635
 30
0.0
 11
3.2925925916
 21
4.9388883635
 31
0.0
  0
LINE
  5
13A
330
133
100
AcDbEntity
  8
EBENE_1
 62
     0
100
AcDbLine
 10
11.5240741288
 20
9.671990294
 30
0.0
 11
12.5824074494
 21
9.671990294
 31
0.0
  0
LINE
  5
13B
330
133
100
AcDbEntity
  8
EBENE_1
 62
     0
100
AcDbLine
 10
12.5824074494
 20
9.671990294
 30
0.0
 11
12.5824074494
 21
4.9388883635
 31
0.0
  0
LINE
  5
13C
330
133
100
AcDbEntity
  8
EBENE_1
 62
     0
100
AcDbLine
 10
12.5824074494
 20
4.9388883635
 30
0.0
 11
11.5240741288
 21
4.9388883635
 31
0.0
  0
LINE
  5
13D
330
133
100
AcDbEntity
  8
EBENE_1
 62
     0
100
AcDbLine
 10
23.60463321
 20
5.1887726877
 30
0.0
 11
14.8166669533
 21
5.1887726877
 31
0.0
  0
LINE
  5
13E
330
133
100
AcDbEntity
  8
EBENE_1
 62
     0
100
AcDbLine
 10
16.3971707594
 20
-20.2112273123
 30
0.0
 11
16.3971707594
 21
5.1887726877
 31
0.0
  0
MTEXT
  5
13F
330
133
100
AcDbEntity
  8
EBENE_1
 62
     0
100
AcDbMText
 10
1.190625
 20
4.0927900738
 30
0.0
 40
3.175
 41
0.0
 71
     1
 72
     1
  1

  7
SLDTEXTSTYLE0
 73
     1
 44
1.0
  0
MTEXT
  5
140
330
133
100
AcDbEntity
  8
EBENE_1
 62
     0
100
AcDbMText
 10
3.2925925916
 20
9.0316784373
 30
0.0
 40
3.175
 41
0.0
 71
     1
 72
     1
  1
3,00
  7
SLDTEXTSTYLE0
 73
     1
 44
1.0
  0
MTEXT
  5
141
330
133
100
AcDbEntity
  8
EBENE_1
 62
     0
100
AcDbMText
 10
2.1166665247
 20
4.0927898409
 30
0.0
 40
3.175
 41
0.0
 71
     1
 72
     1
  1
76,20
  7
SLDTEXTSTYLE0
 73
     1
 44
1.0
  0
MTEXT
  5
142
330
133
100
AcDbEntity
  8
EBENE_1
 62
     0
100
AcDbMText
 10
14.8313658863
 20
4.0927900738
 30
0.0
 40
3.175
 41
0.0
 71
     1
 72
     1
  1

  7
SLDTEXTSTYLE0
 73
     1
 44
1.0
  0
ENDBLK
  5
135
330
133
100
AcDbEntity
  8
0
100
AcDbBlockEnd
  0
BLOCK
  5
145
330
144
100
AcDbEntity
  8
0
100
AcDbBlockBegin
  2
SW_BLOCK_DIMENSION_18
 70
     0
 10
0.0
 20
0.0
 30
0.0
  3
SW_BLOCK_DIMENSION_18
  1

  0
SOLID
  5
147
330
144
100
AcDbEntity
  8
EBENE_1
 62
     0
100
AcDbTrace
 10
16.8675417449
 20
5.1887726877
 30
0.0
 11
16.3933906031
 21
2.1067902658
 31
0.0
 12
17.3416928867
 22
2.1067902658
 32
0.0
 13
17.3416928867
 23
2.1067902658
 33
0.0
  0
LINE
  5
148
330
144
100
AcDbEntity
  8
EBENE_1
 62
     0
100
AcDbLine
 10
3.5277780844
 20
9.671990294
 30
0.0
 11
2.4694447638
 21
9.671990294
 31
0.0
  0
LINE
  5
149
330
144
100
AcDbEntity
  8
EBENE_1
 62
     0
100
AcDbLine
 10
2.4694447638
 20
9.671990294
 30
0.0
 11
2.4694447638
 21
4.9388883635
 31
0.0
  0
LINE
  5
14A
330
144
100
AcDbEntity
  8
EBENE_1
 62
     0
100
AcDbLine
 10
2.4694447638
 20
4.9388883635
 30
0.0
 11
3.5277780844
 21
4.9388883635
 31
0.0
  0
LINE
  5
14B
330
144
100
AcDbEntity
  8
EBENE_1
 62
     0
100
AcDbLine
 10
11.7592596216
 20
9.671990294
 30
0.0
 11
12.8175929422
 21
9.671990294
 31
0.0
  0
LINE
  5
14C
330
144
100
AcDbEntity
  8
EBENE_1
 62
     0
100
AcDbLine
 10
12.8175929422
 20
9.671990294
 30
0.0
 11
12.8175929422
 21
4.9388883635
 31
0.0
  0
LINE
  5
14D
330
144
100
AcDbEntity
  8
EBENE_1
 62
     0
100
AcDbLine
 10
12.8175929422
 20
4.9388883635
 30
0.0
 11
11.7592596216
 21
4.9388883635
 31
0.0
  0
LINE
  5
14E
330
144
100
AcDbEntity
  8
EBENE_1
 62
     0
100
AcDbLine
 10
24.0750041956
 20
5.1887726877
 30
0.0
 11
15.2870379388
 21
5.1887726877
 31
0.0
  0
LINE
  5
14F
330
144
100
AcDbEntity
  8
EBENE_1
 62
     0
100
AcDbLine
 10
16.8675417449
 20
-20.2112273123
 30
0.0
 11
16.8675417449
 21
5.1887726877
 31
0.0
  0
MTEXT
  5
150
330
144
100
AcDbEntity
  8
EBENE_1
 62
     0
100
AcDbMText
 10
1.190625
 20
4.0927900738
 30
0.0
 40
3.175
 41
0.0
 71
     1
 72
     1
  1

  7
SLDTEXTSTYLE0
 73
     1
 44
1.0
  0
MTEXT
  5
151
330
144
100
AcDbEntity
  8
EBENE_1
 62
     0
100
AcDbMText
 10
3.5277780844
 20
9.0316784373
 30
0.0
 40
3.175
 41
0.0
 71
     1
 72
     1
  1
4,00
  7
SLDTEXTSTYLE0
 73
     1
 44
1.0
  0
MTEXT
  5
152
330
144
100
AcDbEntity
  8
EBENE_1
 62
     0
100
AcDbMText
 10
1.1759259505
 20
4.0927898409
 30
0.0
 40
3.175
 41
0.0
 71
     1
 72
     1
  1
101,60
  7
SLDTEXTSTYLE0
 73
     1
 44
1.0
  0
MTEXT
  5
153
330
144
100
AcDbEntity
  8
EBENE_1
 62
     0
100
AcDbMText
 10
15.3017368719
 20
4.0927900738
 30
0.0
 40
3.175
 41
0.0
 71
     1
 72
     1
  1

  7
SLDTEXTSTYLE0
 73
     1
 44
1.0
  0
ENDBLK
  5
146
330
144
100
AcDbEntity
  8
0
100
AcDbBlockEnd
  0
BLOCK
  5
156
330
155
100
AcDbEntity
  8
0
100
AcDbBlockBegin
  2
SW_BLOCK_DIMENSION_19
 70
     0
 10
0.0
 20
0.0
 30
0.0
  3
SW_BLOCK_DIMENSION_19
  1

  0
SOLID
  5
158
330
155
100
AcDbEntity
  8
EBENE_1
 62
     0
100
AcDbTrace
 10
16.3971707594
 20
5.1887726877
 30
0.0
 11
15.9230196175
 21
2.1067902658
 31
0.0
 12
16.8713219012
 22
2.1067902658
 32
0.0
 13
16.8713219012
 23
2.1067902658
 33
0.0
  0
LINE
  5
159
330
155
100
AcDbEntity
  8
EBENE_1
 62
     0
100
AcDbLine
 10
3.2925925916
 20
9.671990294
 30
0.0
 11
2.2342592711
 21
9.671990294
 31
0.0
  0
LINE
  5
15A
330
155
100
AcDbEntity
  8
EBENE_1
 62
     0
100
AcDbLine
 10
2.2342592711
 20
9.671990294
 30
0.0
 11
2.2342592711
 21
4.9388883635
 31
0.0
  0
LINE
  5
15B
330
155
100
AcDbEntity
  8
EBENE_1
 62
     0
100
AcDbLine
 10
2.2342592711
 20
4.9388883635
 30
0.0
 11
3.2925925916
 21
4.9388883635
 31
0.0
  0
LINE
  5
15C
330
155
100
AcDbEntity
  8
EBENE_1
 62
     0
100
AcDbLine
 10
11.5240741288
 20
9.671990294
 30
0.0
 11
12.5824074494
 21
9.671990294
 31
0.0
  0
LINE
  5
15D
330
155
100
AcDbEntity
  8
EBENE_1
 62
     0
100
AcDbLine
 10
12.5824074494
 20
9.671990294
 30
0.0
 11
12.5824074494
 21
4.9388883635
 31
0.0
  0
LINE
  5
15E
330
155
100
AcDbEntity
  8
EBENE_1
 62
     0
100
AcDbLine
 10
12.5824074494
 20
4.9388883635
 30
0.0
 11
11.5240741288
 21
4.9388883635
 31
0.0
  0
LINE
  5
15F
330
155
100
AcDbEntity
  8
EBENE_1
 62
     0
100
AcDbLine
 10
23.60463321
 20
5.1887726877
 30
0.0
 11
14.8166669533
 21
5.1887726877
 31
0.0
  0
LINE
  5
160
330
155
100
AcDbEntity
  8
EBENE_1
 62
     0
100
AcDbLine
 10
16.3971707594
 20
-20.2112273123
 30
0.0
 11
16.3971707594
 21
5.1887726877
 31
0.0
  0
MTEXT
  5
161
330
155
100
AcDbEntity
  8
EBENE_1
 62
     0
100
AcDbMText
 10
1.190625
 20
4.0927900738
 30
0.0
 40
3.175
 41
0.0
 71
     1
 72
     1
  1

  7
SLDTEXTSTYLE0
 73
     1
 44
1.0
  0
MTEXT
  5
162
330
155
100
AcDbEntity
  8
EBENE_1
 62
     0
100
AcDbMText
 10
3.2925925916
 20
9.0316784373
 30
0.0
 40
3.175
 41
0.0
 71
     1
 72
     1
  1
5,00
  7
SLDTEXTSTYLE0
 73
     1
 44
1.0
  0
MTEXT
  5
163
330
155
100
AcDbEntity
  8
EBENE_1
 62
     0
100
AcDbMText
 10
3.8805556251
 20
4.0927898409
 30
0.0
 40
3.175
 41
0.0
 71
     1
 72
     1
  1
127
  7
SLDTEXTSTYLE0
 73
     1
 44
1.0
  0
MTEXT
  5
164
330
155
100
AcDbEntity
  8
EBENE_1
 62
     0
100
AcDbMText
 10
14.8313658863
 20
4.0927900738
 30
0.0
 40
3.175
 41
0.0
 71
     1
 72
     1
  1

  7
SLDTEXTSTYLE0
 73
     1
 44
1.0
  0
ENDBLK
  5
157
330
155
100
AcDbEntity
  8
0
100
AcDbBlockEnd
  0
BLOCK
  5
167
330
166
100
AcDbEntity
  8
0
100
AcDbBlockBegin
  2
SW_NOTE_0
 70
     0
 10
0.0
 20
0.0
 30
0.0
  3
SW_NOTE_0
  1

  0
MTEXT
  5
169
330
166
100
AcDbEntity
  8
EBENE_1
 62
     0
100
AcDbMText
 10
6.7138020833
 20
4.7749217527
 30
0.0
 40
3.7041666667
 41
0.0
 71
     2
 72
     1
  1
(Inch)
  7
SLDTEXTSTYLE0
 73
     1
 44
1.0
  0
MTEXT
  5
16A
330
166
100
AcDbEntity
  8
EBENE_1
 62
     0
100
AcDbMText
 10
6.7309508326
 20
-1.1639672404
 30
0.0
 40
3.7041666667
 41
0.0
 71
     2
 72
     1
  1
mm
  7
SLDTEXTSTYLE0
 73
     1
 44
1.0
  0
ENDBLK
  5
168
330
166
100
AcDbEntity
  8
0
100
AcDbBlockEnd
  0
BLOCK
  5
172
330
171
100
AcDbEntity
  8
0
100
AcDbBlockBegin
  2
SW_NOTE_1
 70
     0
 10
0.0
 20
0.0
 30
0.0
  3
SW_NOTE_1
  1

  0
MTEXT
  5
174
330
171
100
AcDbEntity
  8
0
  6
Continuous
 62
     0
370
     0
100
AcDbMText
 10
19.893359375
 20
4.0927900738
 30
0.0
 40
3.175
 41
0.0
 71
     2
 72
     1
  1
ABP-Beyerle GmbH
  7
SLDTEXTSTYLE0
 73
     1
 44
1.0
  0
MTEXT
  5
175
330
171
100
AcDbEntity
  8
0
  6
Continuous
 62
     0
370
     0
100
AcDbMText
 10
20.6558884293
 20
-0.1405432084
 30
0.0
 40
3.175
 41
0.0
 71
     2
 72
     1
  1
Im Schollengarten 24b, 76646 Bruchsal
  7
SLDTEXTSTYLE0
 73
     1
 44
1.0
  0
MTEXT
  5
176
330
171
100
AcDbEntity
  8
0
  6
Continuous
 62
     0
370
     0
100
AcDbMText
 10
20.7863491923
 20
-4.3738764906
 30
0.0
 40
3.175
 41
0.0
 71
     2
 72
     1
  1
Tel. +49 (0)7251-9127-0, Fax. +49 (0)7251-9127-29
  7
SLDTEXTSTYLE0
 73
     1
 44
1.0
  0
MTEXT
  5
177
330
171
100
AcDbEntity
  8
0
  6
Continuous
 62
     0
370
     0
100
AcDbMText
 10
20.8392552227
 20
-8.6072097727
 30
0.0
 40
3.175
 41
0.0
 71
     2
 72
     1
  1
info@abp-beyerle.de, www.abp-beyerle.de
  7
SLDTEXTSTYLE0
 73
     1
 44
1.0
  0
ENDBLK
  5
173
330
171
100
AcDbEntity
  8
0
100
AcDbBlockEnd
  0
ENDSEC
  0
SECTION
  2
ENTITIES
  0
INSERT
  5
16D
330
1F
100
AcDbEntity
  8
EBENE_1
100
AcDbBlockReference
  2
Block1
 10
19.561342692
 20
-6.9223244521
 30
0.0
  0
MTEXT
  5
16F
330
1F
100
AcDbEntity
  8
0
  6
Continuous
 62
     7
370
     0
100
AcDbMText
 10
402.5
 20
14.7189135832
 30
0.0
 40
6.35
 41
0.0
 71
     1
 72
     1
  1
1:1
  7
SLDTEXTSTYLE1
 73
     1
 44
1.0
  0
MTEXT
  5
170
330
1F
100
AcDbEntity
  8
0
  6
Continuous
 62
     7
370
     0
100
AcDbMText
 10
168.4090458961
 20
14.7189131175
 30
0.0
 40
6.35
 41
0.0
 71
     1
 72
     1
  1
USO122DS-EF
  7
SLDTEXTSTYLE1
 73
     1
 44
1.0
  0
INSERT
  5
178
330
1F
100
AcDbEntity
  8
0
  6
Continuous
 62
     7
370
     0
100
AcDbBlockReference
  2
SW_NOTE_1
 10
35.4202146835
 20
20.1681939512
 30
0.0
  0
LINE
  5
179
330
1F
100
AcDbEntity
  8
0
  6
Continuous
 62
     7
370
    15
100
AcDbLine
 10
262.2147258572
 20
158.5831380231
 30
0.0
 11
262.2757386617
 21
158.5221252186
 31
0.0
  0
LINE
  5
17A
330
1F
100
AcDbEntity
  8
0
  6
Continuous
 62
     7
370
    15
100
AcDbLine
 10
265.2757372908
 20
158.5221252186
 30
0.0
 11
265.3367500953
 21
158.5831380231
 31
0.0
  0
LINE
  5
17B
330
1F
100
AcDbEntity
  8
0
  6
Continuous
 62
     7
370
    15
100
AcDbLine
 10
117.2147225789
 20
158.5831380231
 30
0.0
 11
117.2757353834
 21
158.5221252186
 31
0.0
  0
LINE
  5
17C
330
1F
100
AcDbEntity
  8
0
  6
Continuous
 62
     7
370
    15
100
AcDbLine
 10
120.2757340125
 20
158.5221252186
 30
0.0
 11
120.336746817
 21
158.5831380231
 31
0.0
  0
ARC
  5
17D
330
1F
100
AcDbEntity
  8
0
  6
Continuous
 62
     7
370
    15
100
AcDbCircle
 10
191.2757363371
 20
310.0221243842
 30
0.0
 40
28.94999999999999
100
AcDbArc
 50
298.3083127821
 51
241.6916872179
  0
CIRCLE
  5
17E
330
1F
100
AcDbEntity
  8
0
  6
Continuous
 62
     7
370
    15
100
AcDbCircle
 10
118.7757363371
 20
181.0221243842
 30
0.0
 40
15.0
  0
CIRCLE
  5
17F
330
1F
100
AcDbEntity
  8
0
  6
Continuous
 62
     7
370
    15
100
AcDbCircle
 10
118.7757363371
 20
181.0221243842
 30
0.0
 40
13.0
  0
CIRCLE
  5
180
330
1F
100
AcDbEntity
  8
0
  6
Continuous
 62
     7
370
    15
100
AcDbCircle
 10
118.7757363371
 20
187.7721243842
 30
0.0
 40
1.249999999999986
  0
CIRCLE
  5
181
330
1F
100
AcDbEntity
  8
0
  6
Continuous
 62
     7
370
    15
100
AcDbCircle
 10
112.0257363371
 20
181.0221243842
 30
0.0
 40
1.25
  0
CIRCLE
  5
182
330
1F
100
AcDbEntity
  8
0
  6
Continuous
 62
     7
370
    15
100
AcDbCircle
 10
118.7757363371
 20
174.2721243842
 30
0.0
 40
1.25
  0
CIRCLE
  5
183
330
1F
100
AcDbEntity
  8
0
  6
Continuous
 62
     7
370
    15
100
AcDbCircle
 10
125.5257363371
 20
181.0221243842
 30
0.0
 40
1.250000000000014
  0
CIRCLE
  5
184
330
1F
100
AcDbEntity
  8
0
  6
Continuous
 62
     7
370
    15
100
AcDbCircle
 10
260.9101788481
 20
180.2034393302
 30
0.0
 40
14.99999999999997
  0
CIRCLE
  5
185
330
1F
100
AcDbEntity
  8
0
  6
Continuous
 62
     7
370
    15
100
AcDbCircle
 10
260.9101788481
 20
180.2034393302
 30
0.0
 40
12.99999999999997
  0
CIRCLE
  5
186
330
1F
100
AcDbEntity
  8
0
  6
Continuous
 62
     7
370
    15
100
AcDbCircle
 10
260.9101788481
 20
186.9534393302
 30
0.0
 40
1.25
  0
CIRCLE
  5
187
330
1F
100
AcDbEntity
  8
0
  6
Continuous
 62
     7
370
    15
100
AcDbCircle
 10
254.1601788481
 20
180.2034393302
 30
0.0
 40
1.249999999999972
  0
CIRCLE
  5
188
330
1F
100
AcDbEntity
  8
0
  6
Continuous
 62
     7
370
    15
100
AcDbCircle
 10
260.9101788481
 20
173.4534393302
 30
0.0
 40
1.25
  0
CIRCLE
  5
189
330
1F
100
AcDbEntity
  8
0
  6
Continuous
 62
     7
370
    15
100
AcDbCircle
 10
267.6601788481
 20
180.2034393302
 30
0.0
 40
1.250000000000057
  0
CIRCLE
  5
18A
330
1F
100
AcDbEntity
  8
0
  6
Continuous
 62
     7
370
    15
100
AcDbCircle
 10
191.2757363371
 20
250.0221243842
 30
0.0
 40
15.0
  0
CIRCLE
  5
18B
330
1F
100
AcDbEntity
  8
0
  6
Continuous
 62
     7
370
    15
100
AcDbCircle
 10
191.2757363371
 20
250.0221243842
 30
0.0
 40
13.0
  0
CIRCLE
  5
18C
330
1F
100
AcDbEntity
  8
0
  6
Continuous
 62
     7
370
    15
100
AcDbCircle
 10
198.0257363371
 20
250.0221243842
 30
0.0
 40
1.249999999999972
  0
CIRCLE
  5
18D
330
1F
100
AcDbEntity
  8
0
  6
Continuous
 62
     7
370
    15
100
AcDbCircle
 10
191.2757363371
 20
243.2721243842
 30
0.0
 40
1.249999999999972
  0
CIRCLE
  5
18E
330
1F
100
AcDbEntity
  8
0
  6
Continuous
 62
     7
370
    15
100
AcDbCircle
 10
184.5257363371
 20
250.0221243842
 30
0.0
 40
1.25
  0
CIRCLE
  5
18F
330
1F
100
AcDbEntity
  8
0
  6
Continuous
 62
     7
370
    15
100
AcDbCircle
 10
191.2757363371
 20
256.7721243842
 30
0.0
 40
1.249999999999972
  0
CIRCLE
  5
190
330
1F
100
AcDbEntity
  8
0
  6
Continuous
 62
     7
370
    15
100
AcDbCircle
 10
191.2757363371
 20
310.0221243842
 30
0.0
 40
14.99999999999997
  0
CIRCLE
  5
191
330
1F
100
AcDbEntity
  8
0
  6
Continuous
 62
     7
370
    15
100
AcDbCircle
 10
191.2757363371
 20
310.0221243842
 30
0.0
 40
12.99999999999997
  0
CIRCLE
  5
192
330
1F
100
AcDbEntity
  8
0
  6
Continuous
 62
     7
370
    15
100
AcDbCircle
 10
198.0257363371
 20
310.0221243842
 30
0.0
 40
1.25
  0
CIRCLE
  5
193
330
1F
100
AcDbEntity
  8
0
  6
Continuous
 62
     7
370
    15
100
AcDbCircle
 10
191.2757363371
 20
303.2721243842
 30
0.0
 40
1.249999999999972
  0
CIRCLE
  5
194
330
1F
100
AcDbEntity
  8
0
  6
Continuous
 62
     7
370
    15
100
AcDbCircle
 10
184.5257363371
 20
310.0221243842
 30
0.0
 40
1.25
  0
CIRCLE
  5
195
330
1F
100
AcDbEntity
  8
0
  6
Continuous
 62
     7
370
    15
100
AcDbCircle
 10
191.2757363371
 20
316.7721243842
 30
0.0
 40
1.25
  0
ARC
  5
196
330
1F
100
AcDbEntity
  8
0
  6
Continuous
 62
     7
370
    15
100
AcDbCircle
 10
191.2757363371
 20
310.0221243842
 30
0.0
 40
28.99999999999999
100
AcDbArc
 50
298.2578834209
 51
241.7421165791
  0
LINE
  5
197
330
1F
100
AcDbEntity
  8
0
  6
Continuous
 62
     7
370
    15
100
AcDbLine
 10
265.2757372908
 20
158.5221252186
 30
0.0
 11
262.2757386617
 21
158.5221252186
 31
0.0
  0
LINE
  5
198
330
1F
100
AcDbEntity
  8
0
  6
Continuous
 62
     7
370
    15
100
AcDbLine
 10
120.2757340125
 20
158.5221252186
 30
0.0
 11
117.2757353834
 21
158.5221252186
 31
0.0
  0
ARC
  5
199
330
1F
100
AcDbEntity
  8
0
  6
Continuous
 62
     7
370
    15
100
AcDbCircle
 10
79.5702363371
 20
286.6597620217
 30
0.0
 40
98.00000000000001
100
AcDbArc
 50
295.5939986742
 51
5.3973436848
  0
ARC
  5
19A
330
1F
100
AcDbEntity
  8
0
  6
Continuous
 62
     7
370
    15
100
AcDbCircle
 10
191.2757363371
 20
310.0221243842
 30
0.0
 40
20.0
100
AcDbArc
 50
314.9913483372
 51
225.0086516628
  0
ARC
  5
19B
330
1F
100
AcDbEntity
  8
0
  6
Continuous
 62
     7
370
    15
100
AcDbCircle
 10
302.9812363371
 20
286.6597620217
 30
0.0
 40
98.00000000000003
100
AcDbArc
 50
174.6026563152
 51
244.4060013258
  0
ARC
  5
19C
330
1F
100
AcDbEntity
  8
0
  6
Continuous
 62
     7
370
    15
100
AcDbCircle
 10
263.7757363371
 20
178.5221243842
 30
0.0
 40
19.99999999999999
100
AcDbArc
 50
178.4686968062
 51
99.0027749637
  0
ARC
  5
19D
330
1F
100
AcDbEntity
  8
0
  6
Continuous
 62
     7
370
    15
100
AcDbCircle
 10
191.2757363371
 20
150.0221243842
 30
0.0
 40
60.00000000000005
100
AcDbArc
 50
28.9409326669
 51
151.0590673331
  0
ARC
  5
19E
330
1F
100
AcDbEntity
  8
0
  6
Continuous
 62
     7
370
    15
100
AcDbCircle
 10
118.7757363371
 20
178.5221243842
 30
0.0
 40
20.0
100
AcDbArc
 50
80.9972250363
 51
1.5313031938
  0
LINE
  5
19F
330
1F
100
AcDbEntity
  8
0
  6
Continuous
 62
     7
370
    15
100
AcDbLine
 10
206.2757360018
 20
109.5877861677
 30
0.0
 11
204.2757366053
 21
111.5877827703
 31
0.0
  0
LINE
  5
1A0
330
1F
100
AcDbEntity
  8
0
  6
Continuous
 62
     7
370
    15
100
AcDbLine
 10
178.2757360689
 20
111.5877827703
 30
0.0
 11
176.2757366724
 21
109.5877861677
 31
0.0
  0
LINE
  5
1A1
330
1F
100
AcDbEntity
  8
0
  6
Continuous
 62
     7
370
    15
100
AcDbLine
 10
176.2757366724
 20
109.5877861677
 30
0.0
 11
176.2757366724
 21
108.5877841412
 31
0.0
  0
LINE
  5
1A2
330
1F
100
AcDbEntity
  8
0
  6
Continuous
 62
     7
370
    15
100
AcDbLine
 10
206.2757360018
 20
108.5877841412
 30
0.0
 11
206.2757360018
 21
109.5877861677
 31
0.0
  0
LINE
  5
1A3
330
1F
100
AcDbEntity
  8
0
  6
Continuous
 62
     7
370
    15
100
AcDbLine
 10
181.5257361359
 20
108.5877841412
 30
0.0
 11
181.5257361359
 21
108.2177845835
 31
0.0
  0
LINE
  5
1A4
330
1F
100
AcDbEntity
  8
0
  6
Continuous
 62
     7
370
    15
100
AcDbLine
 10
201.0257365383
 20
108.2177845835
 30
0.0
 11
201.0257365383
 21
108.5877841412
 31
0.0
  0
LINE
  5
1A5
330
1F
100
AcDbEntity
  8
0
  6
Continuous
 62
     7
370
    15
100
AcDbLine
 10
181.6957360334
 20
107.7177835702
 30
0.0
 11
181.8257365576
 21
107.5877858399
 31
0.0
  0
LINE
  5
1A6
330
1F
100
AcDbEntity
  8
0
  6
Continuous
 62
     7
370
    15
100
AcDbLine
 10
200.7257361166
 20
107.5877858399
 30
0.0
 11
200.8557366408
 21
107.7177835702
 31
0.0
  0
LINE
  5
1A7
330
1F
100
AcDbEntity
  8
0
  6
Continuous
 62
     7
370
    15
100
AcDbLine
 10
206.2757360018
 20
88.2877841665
 30
0.0
 11
205.9757365114
 21
88.5877845882
 31
0.0
  0
LINE
  5
1A8
330
1F
100
AcDbEntity
  8
0
  6
Continuous
 62
     7
370
    15
100
AcDbLine
 10
176.5757361627
 20
88.5877845882
 30
0.0
 11
176.2757366724
 21
88.2877841665
 31
0.0
  0
LINE
  5
1A9
330
1F
100
AcDbEntity
  8
0
  6
Continuous
 62
     7
370
    15
100
AcDbLine
 10
176.2757366724
 20
81.8877843282
 30
0.0
 11
176.5757361627
 21
81.5877843722
 31
0.0
  0
LINE
  5
1AA
330
1F
100
AcDbEntity
  8
0
  6
Continuous
 62
     7
370
    15
100
AcDbLine
 10
205.9757365114
 20
81.5877843722
 30
0.0
 11
206.2757360018
 21
81.8877843282
 31
0.0
  0
LINE
  5
1AB
330
1F
100
AcDbEntity
  8
0
  6
Continuous
 62
     7
370
    15
100
AcDbLine
 10
206.2757360018
 20
81.8877843282
 30
0.0
 11
206.2757360018
 21
88.2877841665
 31
0.0
  0
LINE
  5
1AC
330
1F
100
AcDbEntity
  8
0
  6
Continuous
 62
     7
370
    15
100
AcDbLine
 10
176.2757366724
 20
88.2877841665
 30
0.0
 11
176.2757366724
 21
81.8877843282
 31
0.0
  0
LINE
  5
1AD
330
1F
100
AcDbEntity
  8
0
  6
Continuous
 62
     7
370
    15
100
AcDbLine
 10
200.8557366408
 20
89.4577842279
 30
0.0
 11
200.7257361166
 21
89.5877847521
 31
0.0
  0
LINE
  5
1AE
330
1F
100
AcDbEntity
  8
0
  6
Continuous
 62
     7
370
    15
100
AcDbLine
 10
181.8257365576
 20
89.5877847521
 30
0.0
 11
181.6957360334
 21
89.4577842279
 31
0.0
  0
LINE
  5
1AF
330
1F
100
AcDbEntity
  8
0
  6
Continuous
 62
     7
370
    15
100
AcDbLine
 10
201.0257365383
 20
88.5877845882
 30
0.0
 11
201.0257365383
 21
88.957784146
 31
0.0
  0
LINE
  5
1B0
330
1F
100
AcDbEntity
  8
0
  6
Continuous
 62
     7
370
    15
100
AcDbLine
 10
181.5257361359
 20
88.957784146
 30
0.0
 11
181.5257361359
 21
88.5877845882
 31
0.0
  0
LINE
  5
1B1
330
1F
100
AcDbEntity
  8
0
  6
Continuous
 62
     7
370
    15
100
AcDbLine
 10
220.2257365189
 20
88.957784146
 30
0.0
 11
220.2257365189
 21
89.4577842279
 31
0.0
  0
LINE
  5
1B2
330
1F
100
AcDbEntity
  8
0
  6
Continuous
 62
     7
370
    15
100
AcDbLine
 10
162.3257361553
 20
89.4577842279
 30
0.0
 11
162.3257361553
 21
88.957784146
 31
0.0
  0
LINE
  5
1B3
330
1F
100
AcDbEntity
  8
0
  6
Continuous
 62
     7
370
    15
100
AcDbLine
 10
162.3257361553
 20
108.2177845835
 30
0.0
 11
162.3257361553
 21
107.7177835702
 31
0.0
  0
LINE
  5
1B4
330
1F
100
AcDbEntity
  8
0
  6
Continuous
 62
     7
370
    15
100
AcDbLine
 10
220.2257365189
 20
107.7177835702
 30
0.0
 11
220.2257365189
 21
108.2177845835
 31
0.0
  0
LINE
  5
1B5
330
1F
100
AcDbEntity
  8
0
  6
Continuous
 62
     7
370
    15
100
AcDbLine
 10
183.2757359571
 20
112.8877861499
 30
0.0
 11
183.2757359571
 21
111.5877827703
 31
0.0
  0
LINE
  5
1B6
330
1F
100
AcDbEntity
  8
0
  6
Continuous
 62
     7
370
    15
100
AcDbLine
 10
199.2757367171
 20
111.5877827703
 30
0.0
 11
199.2757367171
 21
112.8877861499
 31
0.0
  0
LINE
  5
1B7
330
1F
100
AcDbEntity
  8
0
  6
Continuous
 62
     7
370
    15
100
AcDbLine
 10
133.775735294
 20
73.587784225
 30
0.0
 11
133.775735294
 21
75.58778432
 31
0.0
  0
LINE
  5
1B8
330
1F
100
AcDbEntity
  8
0
  6
Continuous
 62
     7
370
    15
100
AcDbLine
 10
103.7757378272
 20
75.58778432
 30
0.0
 11
103.7757378272
 21
73.587784225
 31
0.0
  0
LINE
  5
1B9
330
1F
100
AcDbEntity
  8
0
  6
Continuous
 62
     7
370
    15
100
AcDbLine
 10
103.7757378272
 20
73.587784225
 30
0.0
 11
105.7757344297
 21
71.58778413
 31
0.0
  0
LINE
  5
1BA
330
1F
100
AcDbEntity
  8
0
  6
Continuous
 62
     7
370
    15
100
AcDbLine
 10
131.7757349662
 20
71.58778413
 30
0.0
 11
133.775735294
 21
73.587784225
 31
0.0
  0
LINE
  5
1BB
330
1F
100
AcDbEntity
  8
0
  6
Continuous
 62
     7
370
    15
100
AcDbLine
 10
275.9101819448
 20
73.587784225
 30
0.0
 11
275.9101819448
 21
75.58778432
 31
0.0
  0
LINE
  5
1BC
330
1F
100
AcDbEntity
  8
0
  6
Continuous
 62
     7
370
    15
100
AcDbLine
 10
245.9101770274
 20
75.58778432
 30
0.0
 11
245.9101770274
 21
73.587784225
 31
0.0
  0
LINE
  5
1BD
330
1F
100
AcDbEntity
  8
0
  6
Continuous
 62
     7
370
    15
100
AcDbLine
 10
245.9101770274
 20
73.587784225
 30
0.0
 11
247.9101773552
 21
71.58778413
 31
0.0
  0
LINE
  5
1BE
330
1F
100
AcDbEntity
  8
0
  6
Continuous
 62
     7
370
    15
100
AcDbLine
 10
273.9101778916
 20
71.58778413
 30
0.0
 11
275.9101819448
 21
73.587784225
 31
0.0
  0
LINE
  5
1BF
330
1F
100
AcDbEntity
  8
0
  6
Continuous
 62
     7
370
    15
100
AcDbLine
 10
206.2757360018
 20
73.587784225
 30
0.0
 11
206.2757360018
 21
75.58778432
 31
0.0
  0
LINE
  5
1C0
330
1F
100
AcDbEntity
  8
0
  6
Continuous
 62
     7
370
    15
100
AcDbLine
 10
176.2757366724
 20
75.58778432
 30
0.0
 11
176.2757366724
 21
73.587784225
 31
0.0
  0
LINE
  5
1C1
330
1F
100
AcDbEntity
  8
0
  6
Continuous
 62
     7
370
    15
100
AcDbLine
 10
176.2757366724
 20
73.587784225
 30
0.0
 11
178.2757360689
 21
71.58778413
 31
0.0
  0
LINE
  5
1C2
330
1F
100
AcDbEntity
  8
0
  6
Continuous
 62
     7
370
    15
100
AcDbLine
 10
204.2757366053
 20
71.58778413
 30
0.0
 11
206.2757360018
 21
73.587784225
 31
0.0
  0
LINE
  5
1C3
330
1F
100
AcDbEntity
  8
0
  6
Continuous
 62
     7
370
    15
100
AcDbLine
 10
133.775735294
 20
104.0877843349
 30
0.0
 11
131.7757349662
 21
106.0877846627
 31
0.0
  0
LINE
  5
1C4
330
1F
100
AcDbEntity
  8
0
  6
Continuous
 62
     7
370
    15
100
AcDbLine
 10
105.7757344297
 20
106.0877846627
 30
0.0
 11
103.7757378272
 21
104.0877843349
 31
0.0
  0
LINE
  5
1C5
330
1F
100
AcDbEntity
  8
0
  6
Continuous
 62
     7
370
    15
100
AcDbLine
 10
103.7757378272
 20
104.0877843349
 30
0.0
 11
103.7757378272
 21
102.0877840071
 31
0.0
  0
LINE
  5
1C6
330
1F
100
AcDbEntity
  8
0
  6
Continuous
 62
     7
370
    15
100
AcDbLine
 10
133.775735294
 20
102.0877840071
 30
0.0
 11
133.775735294
 21
104.0877843349
 31
0.0
  0
LINE
  5
1C7
330
1F
100
AcDbEntity
  8
0
  6
Continuous
 62
     7
370
    15
100
AcDbLine
 10
114.7757377676
 20
100.5877846925
 30
0.0
 11
114.7757377676
 21
100.0877836793
 31
0.0
  0
LINE
  5
1C8
330
1F
100
AcDbEntity
  8
0
  6
Continuous
 62
     7
370
    15
100
AcDbLine
 10
114.7757377676
 20
93.0877843945
 30
0.0
 11
114.7757377676
 21
92.5877852439
 31
0.0
  0
LINE
  5
1C9
330
1F
100
AcDbEntity
  8
0
  6
Continuous
 62
     7
370
    15
100
AcDbLine
 10
122.7757390789
 20
92.5877852439
 30
0.0
 11
122.7757390789
 21
93.0877843945
 31
0.0
  0
LINE
  5
1CA
330
1F
100
AcDbEntity
  8
0
  6
Continuous
 62
     7
370
    15
100
AcDbLine
 10
122.7757390789
 20
100.0877836793
 30
0.0
 11
122.7757390789
 21
100.5877846925
 31
0.0
  0
LINE
  5
1CB
330
1F
100
AcDbEntity
  8
0
  6
Continuous
 62
     7
370
    15
100
AcDbLine
 10
278.775734847
 20
104.0877843349
 30
0.0
 11
276.7757382444
 21
106.0877846627
 31
0.0
  0
LINE
  5
1CC
330
1F
100
AcDbEntity
  8
0
  6
Continuous
 62
     7
370
    15
100
AcDbLine
 10
250.775737708
 20
106.0877846627
 30
0.0
 11
248.7757373802
 21
104.0877843349
 31
0.0
  0
LINE
  5
1CD
330
1F
100
AcDbEntity
  8
0
  6
Continuous
 62
     7
370
    15
100
AcDbLine
 10
248.7757373802
 20
104.0877843349
 30
0.0
 11
248.7757373802
 21
102.0877840071
 31
0.0
  0
LINE
  5
1CE
330
1F
100
AcDbEntity
  8
0
  6
Continuous
 62
     7
370
    15
100
AcDbLine
 10
278.775734847
 20
102.0877840071
 30
0.0
 11
278.775734847
 21
104.0877843349
 31
0.0
  0
LINE
  5
1CF
330
1F
100
AcDbEntity
  8
0
  6
Continuous
 62
     7
370
    15
100
AcDbLine
 10
259.7757335953
 20
100.5877846925
 30
0.0
 11
259.7757335953
 21
100.0877836793
 31
0.0
  0
LINE
  5
1D0
330
1F
100
AcDbEntity
  8
0
  6
Continuous
 62
     7
370
    15
100
AcDbLine
 10
259.7757335953
 20
93.0877843945
 30
0.0
 11
259.7757335953
 21
92.5877852439
 31
0.0
  0
LINE
  5
1D1
330
1F
100
AcDbEntity
  8
0
  6
Continuous
 62
     7
370
    15
100
AcDbLine
 10
267.7757349066
 20
92.5877852439
 30
0.0
 11
267.7757349066
 21
93.0877843945
 31
0.0
  0
LINE
  5
1D2
330
1F
100
AcDbEntity
  8
0
  6
Continuous
 62
     7
370
    15
100
AcDbLine
 10
267.7757349066
 20
100.0877836793
 30
0.0
 11
267.7757349066
 21
100.5877846925
 31
0.0
  0
LINE
  5
1D3
330
1F
100
AcDbEntity
  8
0
  6
Continuous
 62
     7
370
    15
100
AcDbLine
 10
220.2757355026
 20
106.567356184
 30
0.0
 11
220.2757355026
 21
107.5877858399
 31
0.0
  0
LINE
  5
1D4
330
1F
100
AcDbEntity
  8
0
  6
Continuous
 62
     7
370
    15
100
AcDbLine
 10
162.2757371716
 20
107.5877858399
 30
0.0
 11
162.2757371716
 21
106.567356184
 31
0.0
  0
ARC
  5
1D5
330
1F
100
AcDbEntity
  8
0
  6
Continuous
 62
     7
370
    15
100
AcDbCircle
 10
229.8757363371
 20
98.5617328967
 30
0.0
 40
12.50000000000001
100
AcDbArc
 50
140.1746287392
 51
219.8253712608
  0
ARC
  5
1D6
330
1F
100
AcDbEntity
  8
0
  6
Continuous
 62
     7
370
    15
100
AcDbCircle
 10
152.6757363371
 20
98.5617328967
 30
0.0
 40
12.50000000000003
100
AcDbArc
 50
320.1746287392
 51
39.8253712608
  0
LINE
  5
1D7
330
1F
100
AcDbEntity
  8
0
  6
Continuous
 62
     7
370
    15
100
AcDbLine
 10
220.2757355026
 20
89.5877847521
 30
0.0
 11
220.2757355026
 21
90.556109704
 31
0.0
  0
LINE
  5
1D8
330
1F
100
AcDbEntity
  8
0
  6
Continuous
 62
     7
370
    15
100
AcDbLine
 10
162.2757371716
 20
90.556109704
 30
0.0
 11
162.2757371716
 21
89.5877847521
 31
0.0
  0
LINE
  5
1D9
330
1F
100
AcDbEntity
  8
0
  6
Continuous
 62
     7
370
    15
100
AcDbLine
 10
103.7757378272
 20
90.8877844064
 30
0.0
 11
103.7757378272
 21
81.7877844981
 31
0.0
  0
LINE
  5
1DA
330
1F
100
AcDbEntity
  8
0
  6
Continuous
 62
     7
370
    15
100
AcDbLine
 10
133.775735294
 20
81.7877844981
 30
0.0
 11
133.775735294
 21
90.8877844064
 31
0.0
  0
LINE
  5
1DB
330
1F
100
AcDbEntity
  8
0
  6
Continuous
 62
     7
370
    15
100
AcDbLine
 10
133.775735294
 20
90.8877844064
 30
0.0
 11
133.5757356338
 21
91.0877840667
 31
0.0
  0
LINE
  5
1DC
330
1F
100
AcDbEntity
  8
0
  6
Continuous
 62
     7
370
    15
100
AcDbLine
 10
103.9757337622
 20
91.0877840667
 30
0.0
 11
103.7757378272
 21
90.8877844064
 31
0.0
  0
LINE
  5
1DD
330
1F
100
AcDbEntity
  8
0
  6
Continuous
 62
     7
370
    15
100
AcDbLine
 10
103.7757378272
 20
81.7877844981
 30
0.0
 11
103.9757337622
 21
81.5877843722
 31
0.0
  0
LINE
  5
1DE
330
1F
100
AcDbEntity
  8
0
  6
Continuous
 62
     7
370
    15
100
AcDbLine
 10
133.5757356338
 20
81.5877843722
 30
0.0
 11
133.775735294
 21
81.7877844981
 31
0.0
  0
LINE
  5
1DF
330
1F
100
AcDbEntity
  8
0
  6
Continuous
 62
     7
370
    15
100
AcDbLine
 10
278.775734847
 20
90.8877844064
 30
0.0
 11
278.575738912
 21
91.0877840667
 31
0.0
  0
LINE
  5
1E0
330
1F
100
AcDbEntity
  8
0
  6
Continuous
 62
     7
370
    15
100
AcDbLine
 10
248.9757370404
 20
91.0877840667
 30
0.0
 11
248.7757373802
 21
90.8877844064
 31
0.0
  0
LINE
  5
1E1
330
1F
100
AcDbEntity
  8
0
  6
Continuous
 62
     7
370
    15
100
AcDbLine
 10
248.7757373802
 20
81.7877844981
 30
0.0
 11
248.9757370404
 21
81.5877843722
 31
0.0
  0
LINE
  5
1E2
330
1F
100
AcDbEntity
  8
0
  6
Continuous
 62
     7
370
    15
100
AcDbLine
 10
278.575738912
 20
81.5877843722
 30
0.0
 11
278.775734847
 21
81.7877844981
 31
0.0
  0
LINE
  5
1E3
330
1F
100
AcDbEntity
  8
0
  6
Continuous
 62
     7
370
    15
100
AcDbLine
 10
278.775734847
 20
81.7877844981
 30
0.0
 11
278.775734847
 21
90.8877844064
 31
0.0
  0
LINE
  5
1E4
330
1F
100
AcDbEntity
  8
0
  6
Continuous
 62
     7
370
    15
100
AcDbLine
 10
248.7757373802
 20
90.8877844064
 30
0.0
 11
248.7757373802
 21
81.7877844981
 31
0.0
  0
LINE
  5
1E5
330
1F
100
AcDbEntity
  8
0
  6
Continuous
 62
     7
370
    15
100
AcDbLine
 10
133.275738006
 20
91.0877840667
 30
0.0
 11
133.275738006
 21
92.5877852439
 31
0.0
  0
LINE
  5
1E6
330
1F
100
AcDbEntity
  8
0
  6
Continuous
 62
     7
370
    15
100
AcDbLine
 10
104.2757388405
 20
92.5877852439
 30
0.0
 11
104.2757388405
 21
91.0877840667
 31
0.0
  0
LINE
  5
1E7
330
1F
100
AcDbEntity
  8
0
  6
Continuous
 62
     7
370
    15
100
AcDbLine
 10
133.275738006
 20
100.5877846925
 30
0.0
 11
133.275738006
 21
102.0877840071
 31
0.0
  0
LINE
  5
1E8
330
1F
100
AcDbEntity
  8
0
  6
Continuous
 62
     7
370
    15
100
AcDbLine
 10
104.2757388405
 20
102.0877840071
 30
0.0
 11
104.2757388405
 21
100.5877846925
 31
0.0
  0
LINE
  5
1E9
330
1F
100
AcDbEntity
  8
0
  6
Continuous
 62
     7
370
    15
100
AcDbLine
 10
249.2757346682
 20
92.5877852439
 30
0.0
 11
249.2757346682
 21
91.0877840667
 31
0.0
  0
LINE
  5
1EA
330
1F
100
AcDbEntity
  8
0
  6
Continuous
 62
     7
370
    15
100
AcDbLine
 10
278.2757338337
 20
91.0877840667
 30
0.0
 11
278.2757338337
 21
92.5877852439
 31
0.0
  0
LINE
  5
1EB
330
1F
100
AcDbEntity
  8
0
  6
Continuous
 62
     7
370
    15
100
AcDbLine
 10
249.2757346682
 20
102.0877840071
 30
0.0
 11
249.2757346682
 21
100.5877846925
 31
0.0
  0
LINE
  5
1EC
330
1F
100
AcDbEntity
  8
0
  6
Continuous
 62
     7
370
    15
100
AcDbLine
 10
278.2757338337
 20
100.5877846925
 30
0.0
 11
278.2757338337
 21
102.0877840071
 31
0.0
  0
LINE
  5
1ED
330
1F
100
AcDbEntity
  8
0
  6
Continuous
 62
     7
370
    15
100
AcDbLine
 10
269.7257381133
 20
93.0877843945
 30
0.0
 11
269.7257381133
 21
100.0877836793
 31
0.0
  0
LINE
  5
1EE
330
1F
100
AcDbEntity
  8
0
  6
Continuous
 62
     7
370
    15
100
AcDbLine
 10
257.8257378391
 20
100.0877836793
 30
0.0
 11
257.8257378391
 21
93.0877843945
 31
0.0
  0
LINE
  5
1EF
330
1F
100
AcDbEntity
  8
0
  6
Continuous
 62
     7
370
    15
100
AcDbLine
 10
124.7257348351
 20
93.0877843945
 30
0.0
 11
124.7257348351
 21
100.0877836793
 31
0.0
  0
LINE
  5
1F0
330
1F
100
AcDbEntity
  8
0
  6
Continuous
 62
     7
370
    15
100
AcDbLine
 10
112.8257345609
 20
100.0877836793
 30
0.0
 11
112.8257345609
 21
93.0877843945
 31
0.0
  0
LINE
  5
1F1
330
1F
100
AcDbEntity
  8
0
  6
Continuous
 62
     7
370
    15
100
AcDbLine
 10
211.2757358901
 20
75.58778432
 30
0.0
 11
211.2757358901
 21
81.5877843722
 31
0.0
  0
LINE
  5
1F2
330
1F
100
AcDbEntity
  8
0
  6
Continuous
 62
     7
370
    15
100
AcDbLine
 10
171.2757367841
 20
81.5877843722
 30
0.0
 11
171.2757367841
 21
75.58778432
 31
0.0
  0
LINE
  5
1F3
330
1F
100
AcDbEntity
  8
0
  6
Continuous
 62
     7
370
    15
100
AcDbLine
 10
98.775735145
 20
81.5877843722
 30
0.0
 11
98.775735145
 21
75.58778432
 31
0.0
  0
LINE
  5
1F4
330
1F
100
AcDbEntity
  8
0
  6
Continuous
 62
     7
370
    15
100
AcDbLine
 10
283.7757375292
 20
75.58778432
 30
0.0
 11
283.7757375292
 21
81.5877843722
 31
0.0
  0
LINE
  5
1F5
330
1F
100
AcDbEntity
  8
0
  6
Continuous
 62
     7
370
    15
100
AcDbLine
 10
178.5078942976
 20
111.5877827703
 30
0.0
 11
204.2757366053
 21
111.5877827703
 31
0.0
  0
LINE
  5
1F6
330
1F
100
AcDbEntity
  8
0
  6
Continuous
 62
     7
370
    15
100
AcDbLine
 10
178.2757360689
 20
111.5877827703
 30
0.0
 11
178.5078942976
 21
111.5877827703
 31
0.0
  0
LINE
  5
1F7
330
1F
100
AcDbEntity
  8
0
  6
Continuous
 62
     7
370
    15
100
AcDbLine
 10
176.5436111219
 20
109.5877861677
 30
0.0
 11
176.2757366724
 21
109.5877861677
 31
0.0
  0
LINE
  5
1F8
330
1F
100
AcDbEntity
  8
0
  6
Continuous
 62
     7
370
    15
100
AcDbLine
 10
206.2757360018
 20
109.5877861677
 30
0.0
 11
176.5436111219
 21
109.5877861677
 31
0.0
  0
LINE
  5
1F9
330
1F
100
AcDbEntity
  8
0
  6
Continuous
 62
     7
370
    15
100
AcDbLine
 10
176.2757366724
 20
108.5877841412
 30
0.0
 11
206.2757360018
 21
108.5877841412
 31
0.0
  0
LINE
  5
1FA
330
1F
100
AcDbEntity
  8
0
  6
Continuous
 62
     7
370
    15
100
AcDbLine
 10
176.5757361627
 20
88.5877845882
 30
0.0
 11
205.9757365114
 21
88.5877845882
 31
0.0
  0
LINE
  5
1FB
330
1F
100
AcDbEntity
  8
0
  6
Continuous
 62
     7
370
    15
100
AcDbLine
 10
206.2757360018
 20
88.2877841665
 30
0.0
 11
176.2757366724
 21
88.2877841665
 31
0.0
  0
LINE
  5
1FC
330
1F
100
AcDbEntity
  8
0
  6
Continuous
 62
     7
370
    15
100
AcDbLine
 10
176.2757366724
 20
81.8877843282
 30
0.0
 11
206.2757360018
 21
81.8877843282
 31
0.0
  0
LINE
  5
1FD
330
1F
100
AcDbEntity
  8
0
  6
Continuous
 62
     7
370
    15
100
AcDbLine
 10
162.3257361553
 20
89.4577842279
 30
0.0
 11
220.2257365189
 21
89.4577842279
 31
0.0
  0
LINE
  5
1FE
330
1F
100
AcDbEntity
  8
0
  6
Continuous
 62
     7
370
    15
100
AcDbLine
 10
162.3257361553
 20
88.957784146
 30
0.0
 11
220.2257365189
 21
88.957784146
 31
0.0
  0
LINE
  5
1FF
330
1F
100
AcDbEntity
  8
0
  6
Continuous
 62
     7
370
    15
100
AcDbLine
 10
220.2257365189
 20
107.7177835702
 30
0.0
 11
162.3257361553
 21
107.7177835702
 31
0.0
  0
LINE
  5
200
330
1F
100
AcDbEntity
  8
0
  6
Continuous
 62
     7
370
    15
100
AcDbLine
 10
220.2257365189
 20
108.2177845835
 30
0.0
 11
162.3257361553
 21
108.2177845835
 31
0.0
  0
LINE
  5
201
330
1F
100
AcDbEntity
  8
0
  6
Continuous
 62
     7
370
    15
100
AcDbLine
 10
191.2757363371
 20
112.8877861499
 30
0.0
 11
199.2757367171
 21
112.8877861499
 31
0.0
  0
LINE
  5
202
330
1F
100
AcDbEntity
  8
0
  6
Continuous
 62
     7
370
    15
100
AcDbLine
 10
183.2757359571
 20
112.8877861499
 30
0.0
 11
191.2757363371
 21
112.8877861499
 31
0.0
  0
LINE
  5
203
330
1F
100
AcDbEntity
  8
0
  6
Continuous
 62
     7
370
    15
100
AcDbLine
 10
103.7757378272
 20
73.587784225
 30
0.0
 11
133.775735294
 21
73.587784225
 31
0.0
  0
LINE
  5
204
330
1F
100
AcDbEntity
  8
0
  6
Continuous
 62
     7
370
    15
100
AcDbLine
 10
131.7757349662
 20
71.58778413
 30
0.0
 11
105.7757344297
 21
71.58778413
 31
0.0
  0
LINE
  5
205
330
1F
100
AcDbEntity
  8
0
  6
Continuous
 62
     7
370
    15
100
AcDbLine
 10
245.9101770274
 20
73.587784225
 30
0.0
 11
275.9101819448
 21
73.587784225
 31
0.0
  0
LINE
  5
206
330
1F
100
AcDbEntity
  8
0
  6
Continuous
 62
     7
370
    15
100
AcDbLine
 10
273.9101778916
 20
71.58778413
 30
0.0
 11
247.9101773552
 21
71.58778413
 31
0.0
  0
LINE
  5
207
330
1F
100
AcDbEntity
  8
0
  6
Continuous
 62
     7
370
    15
100
AcDbLine
 10
176.2757366724
 20
73.587784225
 30
0.0
 11
206.2757360018
 21
73.587784225
 31
0.0
  0
LINE
  5
208
330
1F
100
AcDbEntity
  8
0
  6
Continuous
 62
     7
370
    15
100
AcDbLine
 10
204.2757366053
 20
71.58778413
 30
0.0
 11
178.2757360689
 21
71.58778413
 31
0.0
  0
LINE
  5
209
330
1F
100
AcDbEntity
  8
0
  6
Continuous
 62
     7
370
    15
100
AcDbLine
 10
133.775735294
 20
104.0877843349
 30
0.0
 11
103.7757378272
 21
104.0877843349
 31
0.0
  0
LINE
  5
20A
330
1F
100
AcDbEntity
  8
0
  6
Continuous
 62
     7
370
    15
100
AcDbLine
 10
105.7757344297
 20
106.0877846627
 30
0.0
 11
131.7757349662
 21
106.0877846627
 31
0.0
  0
LINE
  5
20B
330
1F
100
AcDbEntity
  8
0
  6
Continuous
 62
     7
370
    15
100
AcDbLine
 10
133.775735294
 20
102.0877840071
 30
0.0
 11
103.7757378272
 21
102.0877840071
 31
0.0
  0
LINE
  5
20C
330
1F
100
AcDbEntity
  8
0
  6
Continuous
 62
     7
370
    15
100
AcDbLine
 10
278.775734847
 20
104.0877843349
 30
0.0
 11
248.7757373802
 21
104.0877843349
 31
0.0
  0
LINE
  5
20D
330
1F
100
AcDbEntity
  8
0
  6
Continuous
 62
     7
370
    15
100
AcDbLine
 10
250.775737708
 20
106.0877846627
 30
0.0
 11
276.7757382444
 21
106.0877846627
 31
0.0
  0
LINE
  5
20E
330
1F
100
AcDbEntity
  8
0
  6
Continuous
 62
     7
370
    15
100
AcDbLine
 10
278.775734847
 20
102.0877840071
 30
0.0
 11
248.7757373802
 21
102.0877840071
 31
0.0
  0
LINE
  5
20F
330
1F
100
AcDbEntity
  8
0
  6
Continuous
 62
     7
370
    15
100
AcDbLine
 10
162.2757371716
 20
107.5877858399
 30
0.0
 11
220.2757355026
 21
107.5877858399
 31
0.0
  0
LINE
  5
210
330
1F
100
AcDbEntity
  8
0
  6
Continuous
 62
     7
370
    15
100
AcDbLine
 10
183.7274055197
 20
106.567356184
 30
0.0
 11
220.2757355026
 21
106.567356184
 31
0.0
  0
LINE
  5
211
330
1F
100
AcDbEntity
  8
0
  6
Continuous
 62
     7
370
    15
100
AcDbLine
 10
162.2757371716
 20
106.567356184
 30
0.0
 11
183.7274055197
 21
106.567356184
 31
0.0
  0
LINE
  5
212
330
1F
100
AcDbEntity
  8
0
  6
Continuous
 62
     7
370
    15
100
AcDbLine
 10
220.2757355026
 20
90.556109704
 30
0.0
 11
162.2757371716
 21
90.556109704
 31
0.0
  0
LINE
  5
213
330
1F
100
AcDbEntity
  8
0
  6
Continuous
 62
     7
370
    15
100
AcDbLine
 10
162.2757371716
 20
89.5877847521
 30
0.0
 11
220.2757355026
 21
89.5877847521
 31
0.0
  0
LINE
  5
214
330
1F
100
AcDbEntity
  8
0
  6
Continuous
 62
     7
370
    15
100
AcDbLine
 10
103.7757378272
 20
81.7877844981
 30
0.0
 11
133.775735294
 21
81.7877844981
 31
0.0
  0
LINE
  5
215
330
1F
100
AcDbEntity
  8
0
  6
Continuous
 62
     7
370
    15
100
AcDbLine
 10
133.775735294
 20
90.8877844064
 30
0.0
 11
103.7757378272
 21
90.8877844064
 31
0.0
  0
LINE
  5
216
330
1F
100
AcDbEntity
  8
0
  6
Continuous
 62
     7
370
    15
100
AcDbLine
 10
103.9757337622
 20
91.0877840667
 30
0.0
 11
133.5757356338
 21
91.0877840667
 31
0.0
  0
LINE
  5
217
330
1F
100
AcDbEntity
  8
0
  6
Continuous
 62
     7
370
    15
100
AcDbLine
 10
248.9757370404
 20
91.0877840667
 30
0.0
 11
278.575738912
 21
91.0877840667
 31
0.0
  0
LINE
  5
218
330
1F
100
AcDbEntity
  8
0
  6
Continuous
 62
     7
370
    15
100
AcDbLine
 10
278.775734847
 20
90.8877844064
 30
0.0
 11
248.7757373802
 21
90.8877844064
 31
0.0
  0
LINE
  5
219
330
1F
100
AcDbEntity
  8
0
  6
Continuous
 62
     7
370
    15
100
AcDbLine
 10
248.7757373802
 20
81.7877844981
 30
0.0
 11
278.775734847
 21
81.7877844981
 31
0.0
  0
LINE
  5
21A
330
1F
100
AcDbEntity
  8
0
  6
Continuous
 62
     7
370
    15
100
AcDbLine
 10
104.2757388405
 20
92.5877852439
 30
0.0
 11
133.275738006
 21
92.5877852439
 31
0.0
  0
LINE
  5
21B
330
1F
100
AcDbEntity
  8
0
  6
Continuous
 62
     7
370
    15
100
AcDbLine
 10
105.3056027941
 20
100.5877846925
 30
0.0
 11
133.275738006
 21
100.5877846925
 31
0.0
  0
LINE
  5
21C
330
1F
100
AcDbEntity
  8
0
  6
Continuous
 62
     7
370
    15
100
AcDbLine
 10
104.2757388405
 20
100.5877846925
 30
0.0
 11
105.3056027941
 21
100.5877846925
 31
0.0
  0
LINE
  5
21D
330
1F
100
AcDbEntity
  8
0
  6
Continuous
 62
     7
370
    15
100
AcDbLine
 10
253.1297300211
 20
92.5877852439
 30
0.0
 11
249.2757346682
 21
92.5877852439
 31
0.0
  0
LINE
  5
21E
330
1F
100
AcDbEntity
  8
0
  6
Continuous
 62
     7
370
    15
100
AcDbLine
 10
278.2757338337
 20
92.5877852439
 30
0.0
 11
253.1297300211
 21
92.5877852439
 31
0.0
  0
LINE
  5
21F
330
1F
100
AcDbEntity
  8
0
  6
Continuous
 62
     7
370
    15
100
AcDbLine
 10
253.6148373238
 20
100.5877846925
 30
0.0
 11
249.2757346682
 21
100.5877846925
 31
0.0
  0
LINE
  5
220
330
1F
100
AcDbEntity
  8
0
  6
Continuous
 62
     7
370
    15
100
AcDbLine
 10
278.2757338337
 20
100.5877846925
 30
0.0
 11
253.6148373238
 21
100.5877846925
 31
0.0
  0
LINE
  5
221
330
1F
100
AcDbEntity
  8
0
  6
Continuous
 62
     7
370
    15
100
AcDbLine
 10
257.8257378391
 20
93.0877843945
 30
0.0
 11
269.7257381133
 21
93.0877843945
 31
0.0
  0
LINE
  5
222
330
1F
100
AcDbEntity
  8
0
  6
Continuous
 62
     7
370
    15
100
AcDbLine
 10
257.8257378391
 20
100.0877836793
 30
0.0
 11
269.7257381133
 21
100.0877836793
 31
0.0
  0
LINE
  5
223
330
1F
100
AcDbEntity
  8
0
  6
Continuous
 62
     7
370
    15
100
AcDbLine
 10
112.8257345609
 20
93.0877843945
 30
0.0
 11
124.7257348351
 21
93.0877843945
 31
0.0
  0
LINE
  5
224
330
1F
100
AcDbEntity
  8
0
  6
Continuous
 62
     7
370
    15
100
AcDbLine
 10
112.8257345609
 20
100.0877836793
 30
0.0
 11
124.7257348351
 21
100.0877836793
 31
0.0
  0
LINE
  5
225
330
1F
100
AcDbEntity
  8
0
  6
Continuous
 62
     7
370
    15
100
AcDbLine
 10
171.2757367841
 20
81.5877843722
 30
0.0
 11
211.2757358901
 21
81.5877843722
 31
0.0
  0
LINE
  5
226
330
1F
100
AcDbEntity
  8
0
  6
Continuous
 62
     7
370
    15
100
AcDbLine
 10
171.2757367841
 20
75.58778432
 30
0.0
 11
211.2757358901
 21
75.58778432
 31
0.0
  0
LINE
  5
227
330
1F
100
AcDbEntity
  8
0
  6
Continuous
 62
     7
370
    15
100
AcDbLine
 10
260.6460880689
 20
81.5877843722
 30
0.0
 11
260.6460880689
 21
75.58778432
 31
0.0
  0
LINE
  5
228
330
1F
100
AcDbEntity
  8
0
  6
Continuous
 62
     7
370
    15
100
AcDbLine
 10
211.2757358901
 20
81.5877843722
 30
0.0
 11
260.6460880689
 21
81.5877843722
 31
0.0
  0
LINE
  5
229
330
1F
100
AcDbEntity
  8
0
  6
Continuous
 62
     7
370
    15
100
AcDbLine
 10
211.2757358901
 20
75.58778432
 30
0.0
 11
260.6460880689
 21
75.58778432
 31
0.0
  0
LINE
  5
22A
330
1F
100
AcDbEntity
  8
0
  6
Continuous
 62
     7
370
    15
100
AcDbLine
 10
121.9053846053
 20
81.5877843722
 30
0.0
 11
121.9053846053
 21
75.58778432
 31
0.0
  0
LINE
  5
22B
330
1F
100
AcDbEntity
  8
0
  6
Continuous
 62
     7
370
    15
100
AcDbLine
 10
121.9053846053
 20
81.5877843722
 30
0.0
 11
171.2757367841
 21
81.5877843722
 31
0.0
  0
LINE
  5
22C
330
1F
100
AcDbEntity
  8
0
  6
Continuous
 62
     7
370
    15
100
AcDbLine
 10
121.9053846053
 20
75.58778432
 30
0.0
 11
171.2757367841
 21
75.58778432
 31
0.0
  0
LINE
  5
22D
330
1F
100
AcDbEntity
  8
0
  6
Continuous
 62
     7
370
    15
100
AcDbLine
 10
98.775735145
 20
81.5877843722
 30
0.0
 11
121.9053846053
 21
81.5877843722
 31
0.0
  0
LINE
  5
22E
330
1F
100
AcDbEntity
  8
0
  6
Continuous
 62
     7
370
    15
100
AcDbLine
 10
98.775735145
 20
75.58778432
 30
0.0
 11
121.9053846053
 21
75.58778432
 31
0.0
  0
LINE
  5
22F
330
1F
100
AcDbEntity
  8
0
  6
Continuous
 62
     7
370
    15
100
AcDbLine
 10
260.6460880689
 20
81.5877843722
 30
0.0
 11
283.7757375292
 21
81.5877843722
 31
0.0
  0
LINE
  5
230
330
1F
100
AcDbEntity
  8
0
  6
Continuous
 62
     7
370
    15
100
AcDbLine
 10
260.6460880689
 20
75.58778432
 30
0.0
 11
283.7757375292
 21
75.58778432
 31
0.0
  0
LINE
  5
231
330
1F
100
AcDbEntity
  8
0
  6
Continuous
 62
     7
370
    15
100
AcDbLine
 10
16.2798730249
 20
325.0221273644
 30
0.0
 11
15.2798709983
 21
325.0221273644
 31
0.0
  0
LINE
  5
232
330
1F
100
AcDbEntity
  8
0
  6
Continuous
 62
     7
370
    15
100
AcDbLine
 10
15.2798709983
 20
295.0221261723
 30
0.0
 11
16.2798730249
 21
295.0221261723
 31
0.0
  0
LINE
  5
233
330
1F
100
AcDbEntity
  8
0
  6
Continuous
 62
     7
370
    15
100
AcDbLine
 10
16.2798730249
 20
295.0221261723
 30
0.0
 11
18.2798696274
 21
297.0221227748
 31
0.0
  0
LINE
  5
234
330
1F
100
AcDbEntity
  8
0
  6
Continuous
 62
     7
370
    15
100
AcDbLine
 10
18.2798696274
 20
323.0221233113
 30
0.0
 11
16.2798730249
 21
325.0221273644
 31
0.0
  0
LINE
  5
235
330
1F
100
AcDbEntity
  8
0
  6
Continuous
 62
     7
370
    15
100
AcDbLine
 10
14.4098704273
 20
319.6021280034
 30
0.0
 11
14.2798726971
 21
319.4721228225
 31
0.0
  0
LINE
  5
236
330
1F
100
AcDbEntity
  8
0
  6
Continuous
 62
     7
370
    15
100
AcDbLine
 10
14.2798726971
 20
300.5721232636
 30
0.0
 11
14.4098704273
 21
300.4421255333
 31
0.0
  0
LINE
  5
237
330
1F
100
AcDbEntity
  8
0
  6
Continuous
 62
     7
370
    15
100
AcDbLine
 10
15.2798709983
 20
319.7721279008
 30
0.0
 11
14.9098714406
 21
319.7721279008
 31
0.0
  0
LINE
  5
238
330
1F
100
AcDbEntity
  8
0
  6
Continuous
 62
     7
370
    15
100
AcDbLine
 10
14.9098714406
 20
300.2721256359
 30
0.0
 11
15.2798709983
 21
300.2721256359
 31
0.0
  0
LINE
  5
239
330
1F
100
AcDbEntity
  8
0
  6
Continuous
 62
     7
370
    15
100
AcDbLine
 10
-11.4201288147
 20
325.0221273644
 30
0.0
 11
-11.7201287707
 21
324.7221222861
 31
0.0
  0
LINE
  5
23A
330
1F
100
AcDbEntity
  8
0
  6
Continuous
 62
     7
370
    15
100
AcDbLine
 10
-11.7201287707
 20
295.3221238
 30
0.0
 11
-11.4201288147
 21
295.0221261723
 31
0.0
  0
LINE
  5
23B
330
1F
100
AcDbEntity
  8
0
  6
Continuous
 62
     7
370
    15
100
AcDbLine
 10
-11.4201288147
 20
295.0221261723
 30
0.0
 11
-5.0201289763
 21
295.0221261723
 31
0.0
  0
LINE
  5
23C
330
1F
100
AcDbEntity
  8
0
  6
Continuous
 62
     7
370
    15
100
AcDbLine
 10
-5.0201289763
 20
325.0221273644
 30
0.0
 11
-11.4201288147
 21
325.0221273644
 31
0.0
  0
LINE
  5
23D
330
1F
100
AcDbEntity
  8
0
  6
Continuous
 62
     7
370
    15
100
AcDbLine
 10
-5.0201289763
 20
295.0221261723
 30
0.0
 11
-4.7201285546
 21
295.3221238
 31
0.0
  0
LINE
  5
23E
330
1F
100
AcDbEntity
  8
0
  6
Continuous
 62
     7
370
    15
100
AcDbLine
 10
-4.7201285546
 20
324.7221222861
 30
0.0
 11
-5.0201289763
 21
325.0221273644
 31
0.0
  0
LINE
  5
23F
330
1F
100
AcDbEntity
  8
0
  6
Continuous
 62
     7
370
    15
100
AcDbLine
 10
-4.7201285546
 20
300.2721256359
 30
0.0
 11
-4.3501289969
 21
300.2721256359
 31
0.0
  0
LINE
  5
240
330
1F
100
AcDbEntity
  8
0
  6
Continuous
 62
     7
370
    15
100
AcDbLine
 10
-4.3501289969
 20
319.7721279008
 30
0.0
 11
-4.7201285546
 21
319.7721279008
 31
0.0
  0
LINE
  5
241
330
1F
100
AcDbEntity
  8
0
  6
Continuous
 62
     7
370
    15
100
AcDbLine
 10
-3.8501289149
 20
300.4421255333
 30
0.0
 11
-3.7201283907
 21
300.5721232636
 31
0.0
  0
LINE
  5
242
330
1F
100
AcDbEntity
  8
0
  6
Continuous
 62
     7
370
    15
100
AcDbLine
 10
-3.7201283907
 20
319.4721228225
 30
0.0
 11
-3.8501289149
 21
319.6021280034
 31
0.0
  0
LINE
  5
243
330
1F
100
AcDbEntity
  8
0
  6
Continuous
 62
     7
370
    15
100
AcDbLine
 10
-4.3501289969
 20
281.0721247239
 30
0.0
 11
-3.8501289149
 21
281.0721247239
 31
0.0
  0
LINE
  5
244
330
1F
100
AcDbEntity
  8
0
  6
Continuous
 62
     7
370
    15
100
AcDbLine
 10
-3.8501289149
 20
338.9721250875
 30
0.0
 11
-4.3501289969
 21
338.9721250875
 31
0.0
  0
LINE
  5
245
330
1F
100
AcDbEntity
  8
0
  6
Continuous
 62
     7
370
    15
100
AcDbLine
 10
14.9098714406
 20
338.9721250875
 30
0.0
 11
14.4098704273
 21
338.9721250875
 31
0.0
  0
LINE
  5
246
330
1F
100
AcDbEntity
  8
0
  6
Continuous
 62
     7
370
    15
100
AcDbLine
 10
14.4098704273
 20
281.0721247239
 30
0.0
 11
14.9098714406
 21
281.0721247239
 31
0.0
  0
LINE
  5
247
330
1F
100
AcDbEntity
  8
0
  6
Continuous
 62
     7
370
    15
100
AcDbLine
 10
11.9175934756
 20
258.0221247641
 30
0.0
 11
10.5798715318
 21
258.0221247641
 31
0.0
  0
LINE
  5
248
330
1F
100
AcDbEntity
  8
0
  6
Continuous
 62
     7
370
    15
100
AcDbLine
 10
10.5798715318
 20
242.0221240042
 30
0.0
 11
11.9175934756
 21
242.0221240042
 31
0.0
  0
ARC
  5
249
330
1F
100
AcDbEntity
  8
0
  6
Continuous
 62
     7
370
    15
100
AcDbCircle
 10
15.0798711771
 20
259.5221243842
 30
0.0
 40
3.500000000000002
100
AcDbArc
 50
205.3769335252
 51
334.6230664748
  0
ARC
  5
24A
330
1F
100
AcDbEntity
  8
0
  6
Continuous
 62
     7
370
    15
100
AcDbCircle
 10
15.0798711771
 20
240.5221243842
 30
0.0
 40
3.500000000000002
100
AcDbArc
 50
25.3769335252
 51
154.6230664748
  0
LINE
  5
24B
330
1F
100
AcDbEntity
  8
0
  6
Continuous
 62
     7
370
    15
100
AcDbLine
 10
19.579873007
 20
258.0221247641
 30
0.0
 11
18.2421473379
 21
258.0221247641
 31
0.0
  0
LINE
  5
24C
330
1F
100
AcDbEntity
  8
0
  6
Continuous
 62
     7
370
    15
100
AcDbLine
 10
18.2421473379
 20
242.0221240042
 30
0.0
 11
19.579873007
 21
242.0221240042
 31
0.0
  0
LINE
  5
24D
330
1F
100
AcDbEntity
  8
0
  6
Continuous
 62
     7
370
    15
100
AcDbLine
 10
-11.5201286448
 20
258.0221247641
 30
0.0
 11
-11.7201287707
 21
257.8221241726
 31
0.0
  0
LINE
  5
24E
330
1F
100
AcDbEntity
  8
0
  6
Continuous
 62
     7
370
    15
100
AcDbLine
 10
-11.7201287707
 20
242.2221245958
 30
0.0
 11
-11.5201286448
 21
242.0221240042
 31
0.0
  0
LINE
  5
24F
330
1F
100
AcDbEntity
  8
0
  6
Continuous
 62
     7
370
    15
100
AcDbLine
 10
-11.5201286448
 20
242.0221240042
 30
0.0
 11
10.5798715318
 21
242.0221240042
 31
0.0
  0
LINE
  5
250
330
1F
100
AcDbEntity
  8
0
  6
Continuous
 62
     7
370
    15
100
AcDbLine
 10
10.5798715318
 20
258.0221247641
 30
0.0
 11
-11.5201286448
 21
258.0221247641
 31
0.0
  0
LINE
  5
251
330
1F
100
AcDbEntity
  8
0
  6
Continuous
 62
     7
370
    15
100
AcDbLine
 10
-19.7201289179
 20
196.0221229835
 30
0.0
 11
-21.7201290128
 21
194.0221226556
 31
0.0
  0
LINE
  5
252
330
1F
100
AcDbEntity
  8
0
  6
Continuous
 62
     7
370
    15
100
AcDbLine
 10
-17.7201288229
 20
196.0221229835
 30
0.0
 11
-19.7201289179
 21
196.0221229835
 31
0.0
  0
LINE
  5
253
330
1F
100
AcDbEntity
  8
0
  6
Continuous
 62
     7
370
    15
100
AcDbLine
 10
-19.7201289179
 20
195.2034382863
 30
0.0
 11
-21.7201290128
 21
193.2034379585
 31
0.0
  0
LINE
  5
254
330
1F
100
AcDbEntity
  8
0
  6
Continuous
 62
     7
370
    15
100
AcDbLine
 10
-21.7201290128
 20
167.203437422
 30
0.0
 11
-19.7201289179
 21
165.2034408195
 31
0.0
  0
LINE
  5
255
330
1F
100
AcDbEntity
  8
0
  6
Continuous
 62
     7
370
    15
100
AcDbLine
 10
-19.7201289179
 20
165.2034408195
 30
0.0
 11
-17.7201288229
 21
165.2034408195
 31
0.0
  0
LINE
  5
256
330
1F
100
AcDbEntity
  8
0
  6
Continuous
 62
     7
370
    15
100
AcDbLine
 10
-17.7201288229
 20
195.2034382863
 30
0.0
 11
-19.7201289179
 21
195.2034382863
 31
0.0
  0
LINE
  5
257
330
1F
100
AcDbEntity
  8
0
  6
Continuous
 62
     7
370
    15
100
AcDbLine
 10
-19.7201289179
 20
265.0221240489
 30
0.0
 11
-21.7201290128
 21
263.0221246524
 31
0.0
  0
LINE
  5
258
330
1F
100
AcDbEntity
  8
0
  6
Continuous
 62
     7
370
    15
100
AcDbLine
 10
-21.7201290128
 20
237.0221241159
 30
0.0
 11
-19.7201289179
 21
235.0221247194
 31
0.0
  0
LINE
  5
259
330
1F
100
AcDbEntity
  8
0
  6
Continuous
 62
     7
370
    15
100
AcDbLine
 10
-19.7201289179
 20
235.0221247194
 30
0.0
 11
-17.7201288229
 21
235.0221247194
 31
0.0
  0
LINE
  5
25A
330
1F
100
AcDbEntity
  8
0
  6
Continuous
 62
     7
370
    15
100
AcDbLine
 10
-17.7201288229
 20
265.0221240489
 30
0.0
 11
-19.7201289179
 21
265.0221240489
 31
0.0
  0
LINE
  5
25B
330
1F
100
AcDbEntity
  8
0
  6
Continuous
 62
     7
370
    15
100
AcDbLine
 10
-19.7201289179
 20
325.0221273644
 30
0.0
 11
-21.7201290128
 21
323.0221233113
 31
0.0
  0
LINE
  5
25C
330
1F
100
AcDbEntity
  8
0
  6
Continuous
 62
     7
370
    15
100
AcDbLine
 10
-21.7201290128
 20
297.0221227748
 30
0.0
 11
-19.7201289179
 21
295.0221261723
 31
0.0
  0
LINE
  5
25D
330
1F
100
AcDbEntity
  8
0
  6
Continuous
 62
     7
370
    15
100
AcDbLine
 10
-19.7201289179
 20
295.0221261723
 30
0.0
 11
-17.7201288229
 21
295.0221261723
 31
0.0
  0
LINE
  5
25E
330
1F
100
AcDbEntity
  8
0
  6
Continuous
 62
     7
370
    15
100
AcDbLine
 10
-17.7201288229
 20
325.0221273644
 30
0.0
 11
-19.7201289179
 21
325.0221273644
 31
0.0
  0
LINE
  5
25F
330
1F
100
AcDbEntity
  8
0
  6
Continuous
 62
     7
370
    15
100
AcDbLine
 10
10.779871192
 20
196.0221229835
 30
0.0
 11
8.7798708642
 21
196.0221229835
 31
0.0
  0
LINE
  5
260
330
1F
100
AcDbEntity
  8
0
  6
Continuous
 62
     7
370
    15
100
AcDbLine
 10
8.7798708642
 20
166.0221255167
 30
0.0
 11
10.779871192
 21
166.0221255167
 31
0.0
  0
LINE
  5
261
330
1F
100
AcDbEntity
  8
0
  6
Continuous
 62
     7
370
    15
100
AcDbLine
 10
10.779871192
 20
166.0221255167
 30
0.0
 11
12.7798715199
 21
168.0221221192
 31
0.0
  0
LINE
  5
262
330
1F
100
AcDbEntity
  8
0
  6
Continuous
 62
     7
370
    15
100
AcDbLine
 10
12.7798715199
 20
194.0221226556
 30
0.0
 11
10.779871192
 21
196.0221229835
 31
0.0
  0
LINE
  5
263
330
1F
100
AcDbEntity
  8
0
  6
Continuous
 62
     7
370
    15
100
AcDbLine
 10
7.2798715497
 20
185.0221267683
 30
0.0
 11
6.7798705364
 21
185.0221267683
 31
0.0
  0
LINE
  5
264
330
1F
100
AcDbEntity
  8
0
  6
Continuous
 62
     7
370
    15
100
AcDbLine
 10
-0.2201287484
 20
185.0221267683
 30
0.0
 11
-0.720127899
 21
185.0221267683
 31
0.0
  0
LINE
  5
265
330
1F
100
AcDbEntity
  8
0
  6
Continuous
 62
     7
370
    15
100
AcDbLine
 10
-0.720127899
 20
177.022125457
 30
0.0
 11
-0.2201287484
 21
177.022125457
 31
0.0
  0
LINE
  5
266
330
1F
100
AcDbEntity
  8
0
  6
Continuous
 62
     7
370
    15
100
AcDbLine
 10
6.7798705364
 20
177.022125457
 30
0.0
 11
7.2798715497
 21
177.022125457
 31
0.0
  0
LINE
  5
267
330
1F
100
AcDbEntity
  8
0
  6
Continuous
 62
     7
370
    15
100
AcDbLine
 10
-3.7201283907
 20
281.0221238775
 30
0.0
 11
-2.7518034389
 21
281.0221238775
 31
0.0
  0
LINE
  5
268
330
1F
100
AcDbEntity
  8
0
  6
Continuous
 62
     7
370
    15
100
AcDbLine
 10
-2.7518034389
 20
339.0221259339
 30
0.0
 11
-3.7201283907
 21
339.0221259339
 31
0.0
  0
ARC
  5
269
330
1F
100
AcDbEntity
  8
0
  6
Continuous
 62
     7
370
    15
100
AcDbCircle
 10
5.2538197539
 20
271.4221243842
 30
0.0
 40
12.50000000000002
100
AcDbArc
 50
50.1746287392
 51
129.8253712608
  0
ARC
  5
26A
330
1F
100
AcDbEntity
  8
0
  6
Continuous
 62
     7
370
    15
100
AcDbCircle
 10
5.2538197539
 20
348.6221243842
 30
0.0
 40
12.50000000000002
100
AcDbArc
 50
230.1746287392
 51
309.8253712608
  0
LINE
  5
26B
330
1F
100
AcDbEntity
  8
0
  6
Continuous
 62
     7
370
    15
100
AcDbLine
 10
13.2594430412
 20
281.0221238775
 30
0.0
 11
14.2798726971
 21
281.0221238775
 31
0.0
  0
LINE
  5
26C
330
1F
100
AcDbEntity
  8
0
  6
Continuous
 62
     7
370
    15
100
AcDbLine
 10
14.2798726971
 20
339.0221259339
 30
0.0
 11
13.2594430412
 21
339.0221259339
 31
0.0
  0
LINE
  5
26D
330
1F
100
AcDbEntity
  8
0
  6
Continuous
 62
     7
370
    15
100
AcDbLine
 10
-11.5201286448
 20
166.0221255167
 30
0.0
 11
-2.4201287364
 21
166.0221255167
 31
0.0
  0
LINE
  5
26E
330
1F
100
AcDbEntity
  8
0
  6
Continuous
 62
     7
370
    15
100
AcDbLine
 10
-2.4201287364
 20
196.0221229835
 30
0.0
 11
-11.5201286448
 21
196.0221229835
 31
0.0
  0
LINE
  5
26F
330
1F
100
AcDbEntity
  8
0
  6
Continuous
 62
     7
370
    15
100
AcDbLine
 10
-11.5201286448
 20
196.0221229835
 30
0.0
 11
-11.7201287707
 21
195.8221233232
 31
0.0
  0
LINE
  5
270
330
1F
100
AcDbEntity
  8
0
  6
Continuous
 62
     7
370
    15
100
AcDbLine
 10
-11.7201287707
 20
166.2221214516
 30
0.0
 11
-11.5201286448
 21
166.0221255167
 31
0.0
  0
LINE
  5
271
330
1F
100
AcDbEntity
  8
0
  6
Continuous
 62
     7
370
    15
100
AcDbLine
 10
-2.4201287364
 20
166.0221255167
 30
0.0
 11
-2.2201290762
 21
166.2221214516
 31
0.0
  0
LINE
  5
272
330
1F
100
AcDbEntity
  8
0
  6
Continuous
 62
     7
370
    15
100
AcDbLine
 10
-2.2201290762
 20
195.8221233232
 30
0.0
 11
-2.4201287364
 21
196.0221229835
 31
0.0
  0
LINE
  5
273
330
1F
100
AcDbEntity
  8
0
  6
Continuous
 62
     7
370
    15
100
AcDbLine
 10
-0.720127899
 20
195.5221256955
 30
0.0
 11
-2.2201290762
 21
195.5221256955
 31
0.0
  0
LINE
  5
274
330
1F
100
AcDbEntity
  8
0
  6
Continuous
 62
     7
370
    15
100
AcDbLine
 10
-2.2201290762
 20
166.5221265299
 30
0.0
 11
-0.720127899
 21
166.5221265299
 31
0.0
  0
LINE
  5
275
330
1F
100
AcDbEntity
  8
0
  6
Continuous
 62
     7
370
    15
100
AcDbLine
 10
8.7798708642
 20
195.5221256955
 30
0.0
 11
7.2798715497
 21
195.5221256955
 31
0.0
  0
LINE
  5
276
330
1F
100
AcDbEntity
  8
0
  6
Continuous
 62
     7
370
    15
100
AcDbLine
 10
7.2798715497
 20
166.5221265299
 30
0.0
 11
8.7798708642
 21
166.5221265299
 31
0.0
  0
LINE
  5
277
330
1F
100
AcDbEntity
  8
0
  6
Continuous
 62
     7
370
    15
100
AcDbLine
 10
-0.2201287484
 20
175.0721222503
 30
0.0
 11
6.7798705364
 21
175.0721222503
 31
0.0
  0
LINE
  5
278
330
1F
100
AcDbEntity
  8
0
  6
Continuous
 62
     7
370
    15
100
AcDbLine
 10
6.7798705364
 20
186.9721225245
 30
0.0
 11
-0.2201287484
 21
186.9721225245
 31
0.0
  0
LINE
  5
279
330
1F
100
AcDbEntity
  8
0
  6
Continuous
 62
     7
370
    15
100
AcDbLine
 10
-13.0716231128
 20
158.5221252186
 30
0.0
 11
-11.7201287707
 21
158.5221252186
 31
0.0
  0
LINE
  5
27A
330
1F
100
AcDbEntity
  8
0
  6
Continuous
 62
     7
370
    15
100
AcDbLine
 10
-17.7201288229
 20
158.5221252186
 30
0.0
 11
-16.3491338666
 21
158.5221252186
 31
0.0
  0
LINE
  5
27B
330
1F
100
AcDbEntity
  8
0
  6
Continuous
 62
     7
370
    15
100
AcDbLine
 10
-11.7201287707
 20
198.5221243246
 30
0.0
 11
-17.7201288229
 21
198.5221243246
 31
0.0
  0
LINE
  5
27C
330
1F
100
AcDbEntity
  8
0
  6
Continuous
 62
     7
370
    15
100
AcDbLine
 10
-11.7201287707
 20
330.022122596
 30
0.0
 11
-17.7201288229
 21
330.022122596
 31
0.0
  0
LINE
  5
27D
330
1F
100
AcDbEntity
  8
0
  6
Continuous
 62
     7
370
    15
100
AcDbLine
 10
15.2798709983
 20
307.199984674
 30
0.0
 11
15.2798709983
 21
295.0221261723
 31
0.0
  0
LINE
  5
27E
330
1F
100
AcDbEntity
  8
0
  6
Continuous
 62
     7
370
    15
100
AcDbLine
 10
15.2798709983
 20
325.0221273644
 30
0.0
 11
15.2798709983
 21
307.199984674
 31
0.0
  0
LINE
  5
27F
330
1F
100
AcDbEntity
  8
0
  6
Continuous
 62
     7
370
    15
100
AcDbLine
 10
16.2798730249
 20
295.0221261723
 30
0.0
 11
16.2798730249
 21
325.0221273644
 31
0.0
  0
LINE
  5
280
330
1F
100
AcDbEntity
  8
0
  6
Continuous
 62
     7
370
    15
100
AcDbLine
 10
18.2798696274
 20
323.0221233113
 30
0.0
 11
18.2798696274
 21
297.0221227748
 31
0.0
  0
LINE
  5
281
330
1F
100
AcDbEntity
  8
0
  6
Continuous
 62
     7
370
    15
100
AcDbLine
 10
-11.4201288147
 20
325.0221273644
 30
0.0
 11
-11.4201288147
 21
295.0221261723
 31
0.0
  0
LINE
  5
282
330
1F
100
AcDbEntity
  8
0
  6
Continuous
 62
     7
370
    15
100
AcDbLine
 10
-5.0201289763
 20
295.0221261723
 30
0.0
 11
-5.0201289763
 21
325.0221273644
 31
0.0
  0
LINE
  5
283
330
1F
100
AcDbEntity
  8
0
  6
Continuous
 62
     7
370
    15
100
AcDbLine
 10
-4.7201285546
 20
324.7221222861
 30
0.0
 11
-4.7201285546
 21
295.3221238
 31
0.0
  0
LINE
  5
284
330
1F
100
AcDbEntity
  8
0
  6
Continuous
 62
     7
370
    15
100
AcDbLine
 10
-4.3501289969
 20
282.6597912951
 30
0.0
 11
-4.3501289969
 21
281.0721247239
 31
0.0
  0
LINE
  5
285
330
1F
100
AcDbEntity
  8
0
  6
Continuous
 62
     7
370
    15
100
AcDbLine
 10
-4.3501289969
 20
338.9721250875
 30
0.0
 11
-4.3501289969
 21
282.6597912951
 31
0.0
  0
LINE
  5
286
330
1F
100
AcDbEntity
  8
0
  6
Continuous
 62
     7
370
    15
100
AcDbLine
 10
-3.8501289149
 20
282.6597912951
 30
0.0
 11
-3.8501289149
 21
281.0721247239
 31
0.0
  0
LINE
  5
287
330
1F
100
AcDbEntity
  8
0
  6
Continuous
 62
     7
370
    15
100
AcDbLine
 10
-3.8501289149
 20
338.9721250875
 30
0.0
 11
-3.8501289149
 21
282.6597912951
 31
0.0
  0
LINE
  5
288
330
1F
100
AcDbEntity
  8
0
  6
Continuous
 62
     7
370
    15
100
AcDbLine
 10
14.9098714406
 20
282.8829697115
 30
0.0
 11
14.9098714406
 21
338.9721250875
 31
0.0
  0
LINE
  5
289
330
1F
100
AcDbEntity
  8
0
  6
Continuous
 62
     7
370
    15
100
AcDbLine
 10
14.9098714406
 20
281.0721247239
 30
0.0
 11
14.9098714406
 21
282.8829697115
 31
0.0
  0
LINE
  5
28A
330
1F
100
AcDbEntity
  8
0
  6
Continuous
 62
     7
370
    15
100
AcDbLine
 10
14.4098704273
 20
282.8829697115
 30
0.0
 11
14.4098704273
 21
338.9721250875
 31
0.0
  0
LINE
  5
28B
330
1F
100
AcDbEntity
  8
0
  6
Continuous
 62
     7
370
    15
100
AcDbLine
 10
14.4098704273
 20
281.0721247239
 30
0.0
 11
14.4098704273
 21
282.8829697115
 31
0.0
  0
LINE
  5
28C
330
1F
100
AcDbEntity
  8
0
  6
Continuous
 62
     7
370
    15
100
AcDbLine
 10
11.9175934756
 20
258.0221247641
 30
0.0
 11
11.9175934756
 21
242.0221240042
 31
0.0
  0
LINE
  5
28D
330
1F
100
AcDbEntity
  8
0
  6
Continuous
 62
     7
370
    15
100
AcDbLine
 10
10.5798715318
 20
258.0221247641
 30
0.0
 11
10.5798715318
 21
242.0221240042
 31
0.0
  0
LINE
  5
28E
330
1F
100
AcDbEntity
  8
0
  6
Continuous
 62
     7
370
    15
100
AcDbLine
 10
18.2421473379
 20
258.0221247641
 30
0.0
 11
18.2421473379
 21
242.0221240042
 31
0.0
  0
LINE
  5
28F
330
1F
100
AcDbEntity
  8
0
  6
Continuous
 62
     7
370
    15
100
AcDbLine
 10
19.579873007
 20
258.0221247641
 30
0.0
 11
19.579873007
 21
242.0221240042
 31
0.0
  0
LINE
  5
290
330
1F
100
AcDbEntity
  8
0
  6
Continuous
 62
     7
370
    15
100
AcDbLine
 10
-11.7201287707
 20
245.0381502291
 30
0.0
 11
-11.5201286448
 21
244.7306219271
 31
0.0
  0
LINE
  5
291
330
1F
100
AcDbEntity
  8
0
  6
Continuous
 62
     7
370
    15
100
AcDbLine
 10
-11.5201286448
 20
244.7306219271
 30
0.0
 11
-11.5201286448
 21
242.0221240042
 31
0.0
  0
LINE
  5
292
330
1F
100
AcDbEntity
  8
0
  6
Continuous
 62
     7
370
    15
100
AcDbLine
 10
-11.5201286448
 20
258.0221247641
 30
0.0
 11
-11.5201286448
 21
255.3136268413
 31
0.0
  0
LINE
  5
293
330
1F
100
AcDbEntity
  8
0
  6
Continuous
 62
     7
370
    15
100
AcDbLine
 10
-11.5201286448
 20
255.3136268413
 30
0.0
 11
-11.7201287707
 21
255.0060985392
 31
0.0
  0
LINE
  5
294
330
1F
100
AcDbEntity
  8
0
  6
Continuous
 62
     7
370
    15
100
AcDbLine
 10
-11.5201286448
 20
255.3136268413
 30
0.0
 11
10.5798715318
 21
255.3136268413
 31
0.0
  0
LINE
  5
295
330
1F
100
AcDbEntity
  8
0
  6
Continuous
 62
     7
370
    15
100
AcDbLine
 10
-11.5201286448
 20
244.7306219271
 30
0.0
 11
10.5798715318
 21
244.7306219271
 31
0.0
  0
LINE
  5
296
330
1F
100
AcDbEntity
  8
0
  6
Continuous
 62
     7
370
    15
100
AcDbLine
 10
10.5798715318
 20
244.7306219271
 30
0.0
 11
10.5798715318
 21
242.0221240042
 31
0.0
  0
LINE
  5
297
330
1F
100
AcDbEntity
  8
0
  6
Continuous
 62
     7
370
    15
100
AcDbLine
 10
10.5798715318
 20
258.0221247641
 30
0.0
 11
10.5798715318
 21
255.3136268413
 31
0.0
  0
LINE
  5
298
330
1F
100
AcDbEntity
  8
0
  6
Continuous
 62
     7
370
    15
100
AcDbLine
 10
-19.7201289179
 20
196.0221229835
 30
0.0
 11
-19.7201289179
 21
195.2034382863
 31
0.0
  0
LINE
  5
299
330
1F
100
AcDbEntity
  8
0
  6
Continuous
 62
     7
370
    15
100
AcDbLine
 10
-21.7201290128
 20
193.2034379585
 30
0.0
 11
-21.7201290128
 21
194.0221226556
 31
0.0
  0
LINE
  5
29A
330
1F
100
AcDbEntity
  8
0
  6
Continuous
 62
     7
370
    15
100
AcDbLine
 10
-19.7201289179
 20
195.2034382863
 30
0.0
 11
-19.7201289179
 21
165.2034408195
 31
0.0
  0
LINE
  5
29B
330
1F
100
AcDbEntity
  8
0
  6
Continuous
 62
     7
370
    15
100
AcDbLine
 10
-21.7201290128
 20
167.203437422
 30
0.0
 11
-21.7201290128
 21
193.2034379585
 31
0.0
  0
LINE
  5
29C
330
1F
100
AcDbEntity
  8
0
  6
Continuous
 62
     7
370
    15
100
AcDbLine
 10
-19.7201289179
 20
265.0221240489
 30
0.0
 11
-19.7201289179
 21
235.0221247194
 31
0.0
  0
LINE
  5
29D
330
1F
100
AcDbEntity
  8
0
  6
Continuous
 62
     7
370
    15
100
AcDbLine
 10
-21.7201290128
 20
237.0221241159
 30
0.0
 11
-21.7201290128
 21
263.0221246524
 31
0.0
  0
LINE
  5
29E
330
1F
100
AcDbEntity
  8
0
  6
Continuous
 62
     7
370
    15
100
AcDbLine
 10
-19.7201289179
 20
325.0221273644
 30
0.0
 11
-19.7201289179
 21
295.0221261723
 31
0.0
  0
LINE
  5
29F
330
1F
100
AcDbEntity
  8
0
  6
Continuous
 62
     7
370
    15
100
AcDbLine
 10
-21.7201290128
 20
297.0221227748
 30
0.0
 11
-21.7201290128
 21
323.0221233113
 31
0.0
  0
LINE
  5
2A0
330
1F
100
AcDbEntity
  8
0
  6
Continuous
 62
     7
370
    15
100
AcDbLine
 10
8.7798708642
 20
166.0221255167
 30
0.0
 11
8.7798708642
 21
196.0221229835
 31
0.0
  0
LINE
  5
2A1
330
1F
100
AcDbEntity
  8
0
  6
Continuous
 62
     7
370
    15
100
AcDbLine
 10
10.779871192
 20
166.0221255167
 30
0.0
 11
10.779871192
 21
196.0221229835
 31
0.0
  0
LINE
  5
2A2
330
1F
100
AcDbEntity
  8
0
  6
Continuous
 62
     7
370
    15
100
AcDbLine
 10
12.7798715199
 20
194.0221226556
 30
0.0
 11
12.7798715199
 21
168.0221221192
 31
0.0
  0
LINE
  5
2A3
330
1F
100
AcDbEntity
  8
0
  6
Continuous
 62
     7
370
    15
100
AcDbLine
 10
-3.7201283907
 20
282.0217198474
 30
0.0
 11
-3.7201283907
 21
281.0221238775
 31
0.0
  0
LINE
  5
2A4
330
1F
100
AcDbEntity
  8
0
  6
Continuous
 62
     7
370
    15
100
AcDbLine
 10
-3.7201283907
 20
339.0221259339
 30
0.0
 11
-3.7201283907
 21
282.0217198474
 31
0.0
  0
LINE
  5
2A5
330
1F
100
AcDbEntity
  8
0
  6
Continuous
 62
     7
370
    15
100
AcDbLine
 10
-2.7518034389
 20
282.0217198474
 30
0.0
 11
-2.7518034389
 21
339.0221259339
 31
0.0
  0
LINE
  5
2A6
330
1F
100
AcDbEntity
  8
0
  6
Continuous
 62
     7
370
    15
100
AcDbLine
 10
-2.7518034389
 20
281.0221238775
 30
0.0
 11
-2.7518034389
 21
282.0217198474
 31
0.0
  0
LINE
  5
2A7
330
1F
100
AcDbEntity
  8
0
  6
Continuous
 62
     7
370
    15
100
AcDbLine
 10
13.2594430412
 20
339.0221259339
 30
0.0
 11
13.2594430412
 21
281.0221238775
 31
0.0
  0
LINE
  5
2A8
330
1F
100
AcDbEntity
  8
0
  6
Continuous
 62
     7
370
    15
100
AcDbLine
 10
14.2798726971
 20
282.0217198474
 30
0.0
 11
14.2798726971
 21
281.0221238775
 31
0.0
  0
LINE
  5
2A9
330
1F
100
AcDbEntity
  8
0
  6
Continuous
 62
     7
370
    15
100
AcDbLine
 10
14.2798726971
 20
339.0221259339
 30
0.0
 11
14.2798726971
 21
282.0217198474
 31
0.0
  0
LINE
  5
2AA
330
1F
100
AcDbEntity
  8
0
  6
Continuous
 62
     7
370
    15
100
AcDbLine
 10
-2.4201287364
 20
166.0221255167
 30
0.0
 11
-2.4201287364
 21
196.0221229835
 31
0.0
  0
LINE
  5
2AB
330
1F
100
AcDbEntity
  8
0
  6
Continuous
 62
     7
370
    15
100
AcDbLine
 10
-11.5201286448
 20
196.0221229835
 30
0.0
 11
-11.5201286448
 21
166.0221255167
 31
0.0
  0
LINE
  5
2AC
330
1F
100
AcDbEntity
  8
0
  6
Continuous
 62
     7
370
    15
100
AcDbLine
 10
-2.2201290762
 20
195.8221233232
 30
0.0
 11
-2.2201290762
 21
166.2221214516
 31
0.0
  0
LINE
  5
2AD
330
1F
100
AcDbEntity
  8
0
  6
Continuous
 62
     7
370
    15
100
AcDbLine
 10
-0.720127899
 20
166.5221265299
 30
0.0
 11
-0.720127899
 21
195.5221256955
 31
0.0
  0
LINE
  5
2AE
330
1F
100
AcDbEntity
  8
0
  6
Continuous
 62
     7
370
    15
100
AcDbLine
 10
7.2798715497
 20
166.5221265299
 30
0.0
 11
7.2798715497
 21
195.5221256955
 31
0.0
  0
LINE
  5
2AF
330
1F
100
AcDbEntity
  8
0
  6
Continuous
 62
     7
370
    15
100
AcDbLine
 10
-0.2201287484
 20
186.9721225245
 30
0.0
 11
-0.2201287484
 21
175.0721222503
 31
0.0
  0
LINE
  5
2B0
330
1F
100
AcDbEntity
  8
0
  6
Continuous
 62
     7
370
    15
100
AcDbLine
 10
6.7798705364
 20
186.9721225245
 30
0.0
 11
6.7798705364
 21
175.0721222503
 31
0.0
  0
LINE
  5
2B1
330
1F
100
AcDbEntity
  8
0
  6
Continuous
 62
     7
370
    15
100
AcDbLine
 10
-13.2201290166
 20
158.5221252186
 30
0.0
 11
-16.2201288098
 21
158.5221252186
 31
0.0
  0
LINE
  5
2B2
330
1F
100
AcDbEntity
  8
0
  6
Continuous
 62
     7
370
    15
100
AcDbLine
 10
-11.7201287707
 20
198.5221243246
 30
0.0
 11
-11.7201287707
 21
158.5221252186
 31
0.0
  0
LINE
  5
2B3
330
1F
100
AcDbEntity
  8
0
  6
Continuous
 62
     7
370
    15
100
AcDbLine
 10
-17.7201288229
 20
198.5221243246
 30
0.0
 11
-17.7201288229
 21
158.5221252186
 31
0.0
  0
SPLINE
  5
2B4
330
1F
100
AcDbEntity
  8
0
  6
Continuous
 62
     7
370
    15
100
AcDbSpline
210
0.0
220
0.0
230
1.0
 70
     8
 71
     3
 72
    17
 73
    13
 74
     0
 42
0.000000001
 43
0.00000001
 40
0.0
 40
0.0
 40
0.0
 40
0.0
 40
0.0365412945772079
 40
0.1435325978777057
 40
0.2506550707703277
 40
0.3580951470862664
 40
0.4655447651292688
 40
0.5726778113016177
 40
0.6796631428567786
 40
0.7868985975151825
 40
0.8943937124725249
 40
1.0
 40
1.0
 40
1.0
 40
1.0
 10
-16.34913386662461
 20
158.5238388521657
 30
0.0
 10
-16.35490749388154
 20
158.5233684364133
 30
0.0
 10
-16.37758604780127
 20
158.5215206640287
 30
0.0
 10
-16.22557638098766
 20
158.5340353105601
 30
0.0
 10
-15.90889967677598
 20
158.556154300301
 30
0.0
 10
-15.44538716901186
 20
158.5793198208887
 30
0.0
 10
-14.90304110198461
 20
158.5921044681966
 30
0.0
 10
-14.3401404087085
 20
158.5892348499555
 30
0.0
 10
-13.81985679059963
 20
158.5718449757282
 30
0.0
 10
-13.4038856105439
 20
158.5479265456343
 30
0.0
 10
-13.12314171977502
 20
158.5266248253679
 30
0.0
 10
-13.08869420643841
 20
158.5236959068972
 30
0.0
 10
-13.07162311279185
 20
158.522244427918
 30
0.0
  0
LINE
  5
2B5
330
1F
100
AcDbEntity
  8
0
  6
Continuous
 62
     7
370
    15
100
AcDbLine
 10
-11.7201287707
 20
295.8778551562
 30
0.0
 11
-17.7201288229
 21
295.8778551562
 31
0.0
  0
LINE
  5
2B6
330
1F
100
AcDbEntity
  8
0
  6
Continuous
 62
     7
370
    15
100
AcDbLine
 10
-11.7201287707
 20
295.8778551562
 30
0.0
 11
-11.7201287707
 21
198.5221243246
 31
0.0
  0
LINE
  5
2B7
330
1F
100
AcDbEntity
  8
0
  6
Continuous
 62
     7
370
    15
100
AcDbLine
 10
-17.7201288229
 20
295.8778551562
 30
0.0
 11
-17.7201288229
 21
198.5221243246
 31
0.0
  0
LINE
  5
2B8
330
1F
100
AcDbEntity
  8
0
  6
Continuous
 62
     7
370
    15
100
AcDbLine
 10
-11.7201287707
 20
330.022122596
 30
0.0
 11
-11.7201287707
 21
295.8778551562
 31
0.0
  0
LINE
  5
2B9
330
1F
100
AcDbEntity
  8
0
  6
Continuous
 62
     7
370
    15
100
AcDbLine
 10
-17.7201288229
 20
330.022122596
 30
0.0
 11
-17.7201288229
 21
295.8778551562
 31
0.0
  0
LINE
  5
2BA
330
1F
100
AcDbEntity
  8
0
  6
Continuous
 62
     7
370
    15
100
AcDbLine
 10
176.2757366724
 20
401.9383443008
 30
0.0
 11
178.2757360689
 21
399.9383476983
 31
0.0
  0
LINE
  5
2BB
330
1F
100
AcDbEntity
  8
0
  6
Continuous
 62
     7
370
    15
100
AcDbLine
 10
204.2757366053
 20
399.9383476983
 30
0.0
 11
206.2757360018
 21
401.9383443008
 31
0.0
  0
LINE
  5
2BC
330
1F
100
AcDbEntity
  8
0
  6
Continuous
 62
     7
370
    15
100
AcDbLine
 10
206.2757360018
 20
401.9383443008
 30
0.0
 11
206.2757360018
 21
402.9383463274
 31
0.0
  0
LINE
  5
2BD
330
1F
100
AcDbEntity
  8
0
  6
Continuous
 62
     7
370
    15
100
AcDbLine
 10
176.2757366724
 20
402.9383463274
 30
0.0
 11
176.2757366724
 21
401.9383443008
 31
0.0
  0
LINE
  5
2BE
330
1F
100
AcDbEntity
  8
0
  6
Continuous
 62
     7
370
    15
100
AcDbLine
 10
200.8557366408
 20
403.8083468984
 30
0.0
 11
200.7257361166
 21
403.9383446287
 31
0.0
  0
LINE
  5
2BF
330
1F
100
AcDbEntity
  8
0
  6
Continuous
 62
     7
370
    15
100
AcDbLine
 10
181.8257365576
 20
403.9383446287
 30
0.0
 11
181.6957360334
 21
403.8083468984
 31
0.0
  0
LINE
  5
2C0
330
1F
100
AcDbEntity
  8
0
  6
Continuous
 62
     7
370
    15
100
AcDbLine
 10
201.0257365383
 20
402.9383463274
 30
0.0
 11
201.0257365383
 21
403.3083458851
 31
0.0
  0
LINE
  5
2C1
330
1F
100
AcDbEntity
  8
0
  6
Continuous
 62
     7
370
    15
100
AcDbLine
 10
181.5257361359
 20
403.3083458851
 30
0.0
 11
181.5257361359
 21
402.9383463274
 31
0.0
  0
LINE
  5
2C2
330
1F
100
AcDbEntity
  8
0
  6
Continuous
 62
     7
370
    15
100
AcDbLine
 10
176.2757366724
 20
423.2383463021
 30
0.0
 11
176.5757361627
 21
422.9383458804
 31
0.0
  0
LINE
  5
2C3
330
1F
100
AcDbEntity
  8
0
  6
Continuous
 62
     7
370
    15
100
AcDbLine
 10
205.9757365114
 20
422.9383458804
 30
0.0
 11
206.2757360018
 21
423.2383463021
 31
0.0
  0
LINE
  5
2C4
330
1F
100
AcDbEntity
  8
0
  6
Continuous
 62
     7
370
    15
100
AcDbLine
 10
176.2757366724
 20
429.6383461404
 30
0.0
 11
176.2757366724
 21
423.2383463021
 31
0.0
  0
LINE
  5
2C5
330
1F
100
AcDbEntity
  8
0
  6
Continuous
 62
     7
370
    15
100
AcDbLine
 10
206.2757360018
 20
423.2383463021
 30
0.0
 11
206.2757360018
 21
429.6383461404
 31
0.0
  0
LINE
  5
2C6
330
1F
100
AcDbEntity
  8
0
  6
Continuous
 62
     7
370
    15
100
AcDbLine
 10
206.2757360018
 20
429.6383461404
 30
0.0
 11
205.9757365114
 21
429.9383460964
 31
0.0
  0
LINE
  5
2C7
330
1F
100
AcDbEntity
  8
0
  6
Continuous
 62
     7
370
    15
100
AcDbLine
 10
176.5757361627
 20
429.9383460964
 30
0.0
 11
176.2757366724
 21
429.6383461404
 31
0.0
  0
LINE
  5
2C8
330
1F
100
AcDbEntity
  8
0
  6
Continuous
 62
     7
370
    15
100
AcDbLine
 10
181.6957360334
 20
422.0683462407
 30
0.0
 11
181.8257365576
 21
421.9383457164
 31
0.0
  0
LINE
  5
2C9
330
1F
100
AcDbEntity
  8
0
  6
Continuous
 62
     7
370
    15
100
AcDbLine
 10
200.7257361166
 20
421.9383457164
 30
0.0
 11
200.8557366408
 21
422.0683462407
 31
0.0
  0
LINE
  5
2CA
330
1F
100
AcDbEntity
  8
0
  6
Continuous
 62
     7
370
    15
100
AcDbLine
 10
181.5257361359
 20
422.9383458804
 30
0.0
 11
181.5257361359
 21
422.5683463226
 31
0.0
  0
LINE
  5
2CB
330
1F
100
AcDbEntity
  8
0
  6
Continuous
 62
     7
370
    15
100
AcDbLine
 10
201.0257365383
 20
422.5683463226
 30
0.0
 11
201.0257365383
 21
422.9383458804
 31
0.0
  0
LINE
  5
2CC
330
1F
100
AcDbEntity
  8
0
  6
Continuous
 62
     7
370
    15
100
AcDbLine
 10
162.3257361553
 20
422.5683463226
 30
0.0
 11
162.3257361553
 21
422.0683462407
 31
0.0
  0
LINE
  5
2CD
330
1F
100
AcDbEntity
  8
0
  6
Continuous
 62
     7
370
    15
100
AcDbLine
 10
220.2257365189
 20
422.0683462407
 30
0.0
 11
220.2257365189
 21
422.5683463226
 31
0.0
  0
LINE
  5
2CE
330
1F
100
AcDbEntity
  8
0
  6
Continuous
 62
     7
370
    15
100
AcDbLine
 10
220.2257365189
 20
403.3083458851
 30
0.0
 11
220.2257365189
 21
403.8083468984
 31
0.0
  0
LINE
  5
2CF
330
1F
100
AcDbEntity
  8
0
  6
Continuous
 62
     7
370
    15
100
AcDbLine
 10
162.3257361553
 20
403.8083468984
 30
0.0
 11
162.3257361553
 21
403.3083458851
 31
0.0
  0
LINE
  5
2D0
330
1F
100
AcDbEntity
  8
0
  6
Continuous
 62
     7
370
    15
100
AcDbLine
 10
199.2757367171
 20
398.6383443187
 30
0.0
 11
199.2757367171
 21
399.9760699879
 31
0.0
  0
LINE
  5
2D1
330
1F
100
AcDbEntity
  8
0
  6
Continuous
 62
     7
370
    15
100
AcDbLine
 10
183.2757359571
 20
399.9760699879
 30
0.0
 11
183.2757359571
 21
398.6383443187
 31
0.0
  0
ARC
  5
2D2
330
1F
100
AcDbEntity
  8
0
  6
Continuous
 62
     7
370
    15
100
AcDbCircle
 10
200.7757363371
 20
403.1383461486
 30
0.0
 40
3.500000000000018
100
AcDbArc
 50
115.3769335252
 51
244.6230664748
  0
ARC
  5
2D3
330
1F
100
AcDbEntity
  8
0
  6
Continuous
 62
     7
370
    15
100
AcDbCircle
 10
181.7757363371
 20
403.1383461486
 30
0.0
 40
3.500000000000018
100
AcDbArc
 50
295.3769335252
 51
64.6230664748
  0
LINE
  5
2D4
330
1F
100
AcDbEntity
  8
0
  6
Continuous
 62
     7
370
    15
100
AcDbLine
 10
199.2757367171
 20
406.3006238501
 30
0.0
 11
199.2757367171
 21
407.6383457939
 31
0.0
  0
LINE
  5
2D5
330
1F
100
AcDbEntity
  8
0
  6
Continuous
 62
     7
370
    15
100
AcDbLine
 10
183.2757359571
 20
407.6383457939
 30
0.0
 11
183.2757359571
 21
406.3006238501
 31
0.0
  0
LINE
  5
2D6
330
1F
100
AcDbEntity
  8
0
  6
Continuous
 62
     7
370
    15
100
AcDbLine
 10
183.2757359571
 20
429.7383459705
 30
0.0
 11
183.2757359571
 21
407.6383457939
 31
0.0
  0
LINE
  5
2D7
330
1F
100
AcDbEntity
  8
0
  6
Continuous
 62
     7
370
    15
100
AcDbLine
 10
183.4757365487
 20
429.9383460964
 30
0.0
 11
183.2757359571
 21
429.7383459705
 31
0.0
  0
LINE
  5
2D8
330
1F
100
AcDbEntity
  8
0
  6
Continuous
 62
     7
370
    15
100
AcDbLine
 10
103.7757378272
 20
437.9383462436
 30
0.0
 11
103.7757378272
 21
435.9383461486
 31
0.0
  0
LINE
  5
2D9
330
1F
100
AcDbEntity
  8
0
  6
Continuous
 62
     7
370
    15
100
AcDbLine
 10
133.775735294
 20
435.9383461486
 30
0.0
 11
133.775735294
 21
437.9383462436
 31
0.0
  0
LINE
  5
2DA
330
1F
100
AcDbEntity
  8
0
  6
Continuous
 62
     7
370
    15
100
AcDbLine
 10
133.775735294
 20
437.9383462436
 30
0.0
 11
131.7757349662
 21
439.9383463386
 31
0.0
  0
LINE
  5
2DB
330
1F
100
AcDbEntity
  8
0
  6
Continuous
 62
     7
370
    15
100
AcDbLine
 10
105.7757344297
 20
439.9383463386
 30
0.0
 11
103.7757378272
 21
437.9383462436
 31
0.0
  0
LINE
  5
2DC
330
1F
100
AcDbEntity
  8
0
  6
Continuous
 62
     7
370
    15
100
AcDbLine
 10
245.9101770274
 20
437.9383462436
 30
0.0
 11
245.9101770274
 21
435.9383461486
 31
0.0
  0
LINE
  5
2DD
330
1F
100
AcDbEntity
  8
0
  6
Continuous
 62
     7
370
    15
100
AcDbLine
 10
275.9101819448
 20
435.9383461486
 30
0.0
 11
275.9101819448
 21
437.9383462436
 31
0.0
  0
LINE
  5
2DE
330
1F
100
AcDbEntity
  8
0
  6
Continuous
 62
     7
370
    15
100
AcDbLine
 10
275.9101819448
 20
437.9383462436
 30
0.0
 11
273.9101778916
 21
439.9383463386
 31
0.0
  0
LINE
  5
2DF
330
1F
100
AcDbEntity
  8
0
  6
Continuous
 62
     7
370
    15
100
AcDbLine
 10
247.9101773552
 20
439.9383463386
 30
0.0
 11
245.9101770274
 21
437.9383462436
 31
0.0
  0
LINE
  5
2E0
330
1F
100
AcDbEntity
  8
0
  6
Continuous
 62
     7
370
    15
100
AcDbLine
 10
176.2757366724
 20
437.9383462436
 30
0.0
 11
176.2757366724
 21
435.9383461486
 31
0.0
  0
LINE
  5
2E1
330
1F
100
AcDbEntity
  8
0
  6
Continuous
 62
     7
370
    15
100
AcDbLine
 10
206.2757360018
 20
435.9383461486
 30
0.0
 11
206.2757360018
 21
437.9383462436
 31
0.0
  0
LINE
  5
2E2
330
1F
100
AcDbEntity
  8
0
  6
Continuous
 62
     7
370
    15
100
AcDbLine
 10
206.2757360018
 20
437.9383462436
 30
0.0
 11
204.2757366053
 21
439.9383463386
 31
0.0
  0
LINE
  5
2E3
330
1F
100
AcDbEntity
  8
0
  6
Continuous
 62
     7
370
    15
100
AcDbLine
 10
178.2757360689
 20
439.9383463386
 30
0.0
 11
176.2757366724
 21
437.9383462436
 31
0.0
  0
LINE
  5
2E4
330
1F
100
AcDbEntity
  8
0
  6
Continuous
 62
     7
370
    15
100
AcDbLine
 10
103.7757378272
 20
407.4383461337
 30
0.0
 11
105.7757344297
 21
405.4383458058
 31
0.0
  0
LINE
  5
2E5
330
1F
100
AcDbEntity
  8
0
  6
Continuous
 62
     7
370
    15
100
AcDbLine
 10
131.7757349662
 20
405.4383458058
 30
0.0
 11
133.775735294
 21
407.4383461337
 31
0.0
  0
LINE
  5
2E6
330
1F
100
AcDbEntity
  8
0
  6
Continuous
 62
     7
370
    15
100
AcDbLine
 10
133.775735294
 20
407.4383461337
 30
0.0
 11
133.775735294
 21
409.4383464615
 31
0.0
  0
LINE
  5
2E7
330
1F
100
AcDbEntity
  8
0
  6
Continuous
 62
     7
370
    15
100
AcDbLine
 10
103.7757378272
 20
409.4383464615
 30
0.0
 11
103.7757378272
 21
407.4383461337
 31
0.0
  0
LINE
  5
2E8
330
1F
100
AcDbEntity
  8
0
  6
Continuous
 62
     7
370
    15
100
AcDbLine
 10
122.7757390789
 20
410.938345776
 30
0.0
 11
122.7757390789
 21
411.4383467893
 31
0.0
  0
LINE
  5
2E9
330
1F
100
AcDbEntity
  8
0
  6
Continuous
 62
     7
370
    15
100
AcDbLine
 10
122.7757390789
 20
418.4383460741
 30
0.0
 11
122.7757390789
 21
418.9383452247
 31
0.0
  0
LINE
  5
2EA
330
1F
100
AcDbEntity
  8
0
  6
Continuous
 62
     7
370
    15
100
AcDbLine
 10
114.7757377676
 20
418.9383452247
 30
0.0
 11
114.7757377676
 21
418.4383460741
 31
0.0
  0
LINE
  5
2EB
330
1F
100
AcDbEntity
  8
0
  6
Continuous
 62
     7
370
    15
100
AcDbLine
 10
114.7757377676
 20
411.4383467893
 30
0.0
 11
114.7757377676
 21
410.938345776
 31
0.0
  0
LINE
  5
2EC
330
1F
100
AcDbEntity
  8
0
  6
Continuous
 62
     7
370
    15
100
AcDbLine
 10
248.7757373802
 20
407.4383461337
 30
0.0
 11
250.775737708
 21
405.4383458058
 31
0.0
  0
LINE
  5
2ED
330
1F
100
AcDbEntity
  8
0
  6
Continuous
 62
     7
370
    15
100
AcDbLine
 10
276.7757382444
 20
405.4383458058
 30
0.0
 11
278.775734847
 21
407.4383461337
 31
0.0
  0
LINE
  5
2EE
330
1F
100
AcDbEntity
  8
0
  6
Continuous
 62
     7
370
    15
100
AcDbLine
 10
278.775734847
 20
407.4383461337
 30
0.0
 11
278.775734847
 21
409.4383464615
 31
0.0
  0
LINE
  5
2EF
330
1F
100
AcDbEntity
  8
0
  6
Continuous
 62
     7
370
    15
100
AcDbLine
 10
248.7757373802
 20
409.4383464615
 30
0.0
 11
248.7757373802
 21
407.4383461337
 31
0.0
  0
LINE
  5
2F0
330
1F
100
AcDbEntity
  8
0
  6
Continuous
 62
     7
370
    15
100
AcDbLine
 10
267.7757349066
 20
410.938345776
 30
0.0
 11
267.7757349066
 21
411.4383467893
 31
0.0
  0
LINE
  5
2F1
330
1F
100
AcDbEntity
  8
0
  6
Continuous
 62
     7
370
    15
100
AcDbLine
 10
267.7757349066
 20
418.4383460741
 30
0.0
 11
267.7757349066
 21
418.9383452247
 31
0.0
  0
LINE
  5
2F2
330
1F
100
AcDbEntity
  8
0
  6
Continuous
 62
     7
370
    15
100
AcDbLine
 10
259.7757335953
 20
418.9383452247
 30
0.0
 11
259.7757335953
 21
418.4383460741
 31
0.0
  0
LINE
  5
2F3
330
1F
100
AcDbEntity
  8
0
  6
Continuous
 62
     7
370
    15
100
AcDbLine
 10
259.7757335953
 20
411.4383467893
 30
0.0
 11
259.7757335953
 21
410.938345776
 31
0.0
  0
LINE
  5
2F4
330
1F
100
AcDbEntity
  8
0
  6
Continuous
 62
     7
370
    15
100
AcDbLine
 10
162.2757371716
 20
404.9587742846
 30
0.0
 11
162.2757371716
 21
403.9383446287
 31
0.0
  0
LINE
  5
2F5
330
1F
100
AcDbEntity
  8
0
  6
Continuous
 62
     7
370
    15
100
AcDbLine
 10
220.2757355026
 20
403.9383446287
 30
0.0
 11
220.2757355026
 21
404.9587742846
 31
0.0
  0
ARC
  5
2F6
330
1F
100
AcDbEntity
  8
0
  6
Continuous
 62
     7
370
    15
100
AcDbCircle
 10
152.6757363371
 20
412.9643975718
 30
0.0
 40
12.50000000000004
100
AcDbArc
 50
320.1746287392
 51
39.8253712608
  0
ARC
  5
2F7
330
1F
100
AcDbEntity
  8
0
  6
Continuous
 62
     7
370
    15
100
AcDbCircle
 10
229.8757363371
 20
412.9643975718
 30
0.0
 40
12.50000000000002
100
AcDbArc
 50
140.1746287392
 51
219.8253712608
  0
LINE
  5
2F8
330
1F
100
AcDbEntity
  8
0
  6
Continuous
 62
     7
370
    15
100
AcDbLine
 10
162.2757371716
 20
421.9383457164
 30
0.0
 11
162.2757371716
 21
420.9700207646
 31
0.0
  0
LINE
  5
2F9
330
1F
100
AcDbEntity
  8
0
  6
Continuous
 62
     7
370
    15
100
AcDbLine
 10
220.2757355026
 20
420.9700207646
 30
0.0
 11
220.2757355026
 21
421.9383457164
 31
0.0
  0
LINE
  5
2FA
330
1F
100
AcDbEntity
  8
0
  6
Continuous
 62
     7
370
    15
100
AcDbLine
 10
103.7757378272
 20
420.6383460621
 30
0.0
 11
103.9757337622
 21
420.4383464019
 31
0.0
  0
LINE
  5
2FB
330
1F
100
AcDbEntity
  8
0
  6
Continuous
 62
     7
370
    15
100
AcDbLine
 10
133.5757356338
 20
420.4383464019
 30
0.0
 11
133.775735294
 21
420.6383460621
 31
0.0
  0
LINE
  5
2FC
330
1F
100
AcDbEntity
  8
0
  6
Continuous
 62
     7
370
    15
100
AcDbLine
 10
133.775735294
 20
420.6383460621
 30
0.0
 11
133.775735294
 21
429.7383459705
 31
0.0
  0
LINE
  5
2FD
330
1F
100
AcDbEntity
  8
0
  6
Continuous
 62
     7
370
    15
100
AcDbLine
 10
103.7757378272
 20
429.7383459705
 30
0.0
 11
103.7757378272
 21
420.6383460621
 31
0.0
  0
LINE
  5
2FE
330
1F
100
AcDbEntity
  8
0
  6
Continuous
 62
     7
370
    15
100
AcDbLine
 10
133.775735294
 20
429.7383459705
 30
0.0
 11
133.5757356338
 21
429.9383460964
 31
0.0
  0
LINE
  5
2FF
330
1F
100
AcDbEntity
  8
0
  6
Continuous
 62
     7
370
    15
100
AcDbLine
 10
103.9757337622
 20
429.9383460964
 30
0.0
 11
103.7757378272
 21
429.7383459705
 31
0.0
  0
LINE
  5
300
330
1F
100
AcDbEntity
  8
0
  6
Continuous
 62
     7
370
    15
100
AcDbLine
 10
248.7757373802
 20
429.7383459705
 30
0.0
 11
248.7757373802
 21
420.6383460621
 31
0.0
  0
LINE
  5
301
330
1F
100
AcDbEntity
  8
0
  6
Continuous
 62
     7
370
    15
100
AcDbLine
 10
278.775734847
 20
420.6383460621
 30
0.0
 11
278.775734847
 21
429.7383459705
 31
0.0
  0
LINE
  5
302
330
1F
100
AcDbEntity
  8
0
  6
Continuous
 62
     7
370
    15
100
AcDbLine
 10
248.7757373802
 20
420.6383460621
 30
0.0
 11
248.9757370404
 21
420.4383464019
 31
0.0
  0
LINE
  5
303
330
1F
100
AcDbEntity
  8
0
  6
Continuous
 62
     7
370
    15
100
AcDbLine
 10
278.575738912
 20
420.4383464019
 30
0.0
 11
278.775734847
 21
420.6383460621
 31
0.0
  0
LINE
  5
304
330
1F
100
AcDbEntity
  8
0
  6
Continuous
 62
     7
370
    15
100
AcDbLine
 10
278.775734847
 20
429.7383459705
 30
0.0
 11
278.575738912
 21
429.9383460964
 31
0.0
  0
LINE
  5
305
330
1F
100
AcDbEntity
  8
0
  6
Continuous
 62
     7
370
    15
100
AcDbLine
 10
248.9757370404
 20
429.9383460964
 30
0.0
 11
248.7757373802
 21
429.7383459705
 31
0.0
  0
LINE
  5
306
330
1F
100
AcDbEntity
  8
0
  6
Continuous
 62
     7
370
    15
100
AcDbLine
 10
104.2757388405
 20
420.4383464019
 30
0.0
 11
104.2757388405
 21
418.9383452247
 31
0.0
  0
LINE
  5
307
330
1F
100
AcDbEntity
  8
0
  6
Continuous
 62
     7
370
    15
100
AcDbLine
 10
133.275738006
 20
418.9383452247
 30
0.0
 11
133.275738006
 21
420.4383464019
 31
0.0
  0
LINE
  5
308
330
1F
100
AcDbEntity
  8
0
  6
Continuous
 62
     7
370
    15
100
AcDbLine
 10
104.2757388405
 20
410.938345776
 30
0.0
 11
104.2757388405
 21
409.4383464615
 31
0.0
  0
LINE
  5
309
330
1F
100
AcDbEntity
  8
0
  6
Continuous
 62
     7
370
    15
100
AcDbLine
 10
133.275738006
 20
409.4383464615
 30
0.0
 11
133.275738006
 21
410.938345776
 31
0.0
  0
LINE
  5
30A
330
1F
100
AcDbEntity
  8
0
  6
Continuous
 62
     7
370
    15
100
AcDbLine
 10
278.2757338337
 20
418.9383452247
 30
0.0
 11
278.2757338337
 21
420.4383464019
 31
0.0
  0
LINE
  5
30B
330
1F
100
AcDbEntity
  8
0
  6
Continuous
 62
     7
370
    15
100
AcDbLine
 10
249.2757346682
 20
420.4383464019
 30
0.0
 11
249.2757346682
 21
418.9383452247
 31
0.0
  0
LINE
  5
30C
330
1F
100
AcDbEntity
  8
0
  6
Continuous
 62
     7
370
    15
100
AcDbLine
 10
278.2757338337
 20
409.4383464615
 30
0.0
 11
278.2757338337
 21
410.938345776
 31
0.0
  0
LINE
  5
30D
330
1F
100
AcDbEntity
  8
0
  6
Continuous
 62
     7
370
    15
100
AcDbLine
 10
249.2757346682
 20
410.938345776
 30
0.0
 11
249.2757346682
 21
409.4383464615
 31
0.0
  0
LINE
  5
30E
330
1F
100
AcDbEntity
  8
0
  6
Continuous
 62
     7
370
    15
100
AcDbLine
 10
257.8257378391
 20
418.4383460741
 30
0.0
 11
257.8257378391
 21
411.4383467893
 31
0.0
  0
LINE
  5
30F
330
1F
100
AcDbEntity
  8
0
  6
Continuous
 62
     7
370
    15
100
AcDbLine
 10
269.7257381133
 20
411.4383467893
 30
0.0
 11
269.7257381133
 21
418.4383460741
 31
0.0
  0
LINE
  5
310
330
1F
100
AcDbEntity
  8
0
  6
Continuous
 62
     7
370
    15
100
AcDbLine
 10
112.8257345609
 20
418.4383460741
 30
0.0
 11
112.8257345609
 21
411.4383467893
 31
0.0
  0
LINE
  5
311
330
1F
100
AcDbEntity
  8
0
  6
Continuous
 62
     7
370
    15
100
AcDbLine
 10
124.7257348351
 20
411.4383467893
 30
0.0
 11
124.7257348351
 21
418.4383460741
 31
0.0
  0
LINE
  5
312
330
1F
100
AcDbEntity
  8
0
  6
Continuous
 62
     7
370
    15
100
AcDbLine
 10
243.775734698
 20
435.9383461486
 30
0.0
 11
243.775734698
 21
429.9383460964
 31
0.0
  0
LINE
  5
313
330
1F
100
AcDbEntity
  8
0
  6
Continuous
 62
     7
370
    15
100
AcDbLine
 10
283.7757375292
 20
429.9383460964
 30
0.0
 11
283.7757375292
 21
435.9383461486
 31
0.0
  0
LINE
  5
314
330
1F
100
AcDbEntity
  8
0
  6
Continuous
 62
     7
370
    15
100
AcDbLine
 10
98.775735145
 20
435.9383461486
 30
0.0
 11
98.775735145
 21
429.9383460964
 31
0.0
  0
LINE
  5
315
330
1F
100
AcDbEntity
  8
0
  6
Continuous
 62
     7
370
    15
100
AcDbLine
 10
138.7757379762
 20
429.9383460964
 30
0.0
 11
138.7757379762
 21
435.9383461486
 31
0.0
  0
LINE
  5
316
330
1F
100
AcDbEntity
  8
0
  6
Continuous
 62
     7
370
    15
100
AcDbLine
 10
204.2757366053
 20
399.9383476983
 30
0.0
 11
199.2757367171
 21
399.9383476983
 31
0.0
  0
LINE
  5
317
330
1F
100
AcDbEntity
  8
0
  6
Continuous
 62
     7
370
    15
100
AcDbLine
 10
183.2757359571
 20
399.9383476983
 30
0.0
 11
178.2757360689
 21
399.9383476983
 31
0.0
  0
LINE
  5
318
330
1F
100
AcDbEntity
  8
0
  6
Continuous
 62
     7
370
    15
100
AcDbLine
 10
176.2757366724
 20
401.9383443008
 30
0.0
 11
185.063592644
 21
401.9383443008
 31
0.0
  0
LINE
  5
319
330
1F
100
AcDbEntity
  8
0
  6
Continuous
 62
     7
370
    15
100
AcDbLine
 10
197.4878800302
 20
401.9383443008
 30
0.0
 11
206.2757360018
 21
401.9383443008
 31
0.0
  0
LINE
  5
31A
330
1F
100
AcDbEntity
  8
0
  6
Continuous
 62
     7
370
    15
100
AcDbLine
 10
206.0078615523
 20
402.9383463274
 30
0.0
 11
197.2814551755
 21
402.9383463274
 31
0.0
  0
LINE
  5
31B
330
1F
100
AcDbEntity
  8
0
  6
Continuous
 62
     7
370
    15
100
AcDbLine
 10
185.2700174987
 20
402.9383463274
 30
0.0
 11
176.2757366724
 21
402.9383463274
 31
0.0
  0
LINE
  5
31C
330
1F
100
AcDbEntity
  8
0
  6
Continuous
 62
     7
370
    15
100
AcDbLine
 10
206.2757360018
 20
402.9383463274
 30
0.0
 11
206.0078615523
 21
402.9383463274
 31
0.0
  0
LINE
  5
31D
330
1F
100
AcDbEntity
  8
0
  6
Continuous
 62
     7
370
    15
100
AcDbLine
 10
181.3249383322
 20
422.9383458804
 30
0.0
 11
176.5757361627
 21
422.9383458804
 31
0.0
  0
LINE
  5
31E
330
1F
100
AcDbEntity
  8
0
  6
Continuous
 62
     7
370
    15
100
AcDbLine
 10
205.9757365114
 20
422.9383458804
 30
0.0
 11
197.2757363892
 21
422.9383458804
 31
0.0
  0
LINE
  5
31F
330
1F
100
AcDbEntity
  8
0
  6
Continuous
 62
     7
370
    15
100
AcDbLine
 10
183.2757359571
 20
422.9383458804
 30
0.0
 11
181.3249383322
 21
422.9383458804
 31
0.0
  0
LINE
  5
320
330
1F
100
AcDbEntity
  8
0
  6
Continuous
 62
     7
370
    15
100
AcDbLine
 10
181.1218606509
 20
423.2383463021
 30
0.0
 11
183.2757359571
 21
423.2383463021
 31
0.0
  0
LINE
  5
321
330
1F
100
AcDbEntity
  8
0
  6
Continuous
 62
     7
370
    15
100
AcDbLine
 10
197.2757363892
 20
423.2383463021
 30
0.0
 11
206.2757360018
 21
423.2383463021
 31
0.0
  0
LINE
  5
322
330
1F
100
AcDbEntity
  8
0
  6
Continuous
 62
     7
370
    15
100
AcDbLine
 10
176.2757366724
 20
423.2383463021
 30
0.0
 11
181.1218606509
 21
423.2383463021
 31
0.0
  0
LINE
  5
323
330
1F
100
AcDbEntity
  8
0
  6
Continuous
 62
     7
370
    15
100
AcDbLine
 10
181.1218606509
 20
429.6383461404
 30
0.0
 11
176.2757366724
 21
429.6383461404
 31
0.0
  0
LINE
  5
324
330
1F
100
AcDbEntity
  8
0
  6
Continuous
 62
     7
370
    15
100
AcDbLine
 10
206.2757360018
 20
429.6383461404
 30
0.0
 11
197.3122819527
 21
429.6383461404
 31
0.0
  0
LINE
  5
325
330
1F
100
AcDbEntity
  8
0
  6
Continuous
 62
     7
370
    15
100
AcDbLine
 10
183.2757359571
 20
429.6383461404
 30
0.0
 11
181.1218606509
 21
429.6383461404
 31
0.0
  0
LINE
  5
326
330
1F
100
AcDbEntity
  8
0
  6
Continuous
 62
     7
370
    15
100
AcDbLine
 10
200.7311694525
 20
422.5683463226
 30
0.0
 11
197.2757363892
 21
422.5683463226
 31
0.0
  0
LINE
  5
327
330
1F
100
AcDbEntity
  8
0
  6
Continuous
 62
     7
370
    15
100
AcDbLine
 10
183.2757359571
 20
422.5683463226
 30
0.0
 11
162.3257361553
 21
422.5683463226
 31
0.0
  0
LINE
  5
328
330
1F
100
AcDbEntity
  8
0
  6
Continuous
 62
     7
370
    15
100
AcDbLine
 10
220.2257365189
 20
422.5683463226
 30
0.0
 11
200.7311694525
 21
422.5683463226
 31
0.0
  0
LINE
  5
329
330
1F
100
AcDbEntity
  8
0
  6
Continuous
 62
     7
370
    15
100
AcDbLine
 10
200.7311694525
 20
422.0683462407
 30
0.0
 11
197.2757363892
 21
422.0683462407
 31
0.0
  0
LINE
  5
32A
330
1F
100
AcDbEntity
  8
0
  6
Continuous
 62
     7
370
    15
100
AcDbLine
 10
183.2757359571
 20
422.0683462407
 30
0.0
 11
162.3257361553
 21
422.0683462407
 31
0.0
  0
LINE
  5
32B
330
1F
100
AcDbEntity
  8
0
  6
Continuous
 62
     7
370
    15
100
AcDbLine
 10
220.2257365189
 20
422.0683462407
 30
0.0
 11
200.7311694525
 21
422.0683462407
 31
0.0
  0
LINE
  5
32C
330
1F
100
AcDbEntity
  8
0
  6
Continuous
 62
     7
370
    15
100
AcDbLine
 10
201.3538712836
 20
403.3083458851
 30
0.0
 11
220.2257365189
 21
403.3083458851
 31
0.0
  0
LINE
  5
32D
330
1F
100
AcDbEntity
  8
0
  6
Continuous
 62
     7
370
    15
100
AcDbLine
 10
162.3257361553
 20
403.3083458851
 30
0.0
 11
185.2716054037
 21
403.3083458851
 31
0.0
  0
LINE
  5
32E
330
1F
100
AcDbEntity
  8
0
  6
Continuous
 62
     7
370
    15
100
AcDbLine
 10
197.2798672705
 20
403.3083458851
 30
0.0
 11
201.3538712836
 21
403.3083458851
 31
0.0
  0
LINE
  5
32F
330
1F
100
AcDbEntity
  8
0
  6
Continuous
 62
     7
370
    15
100
AcDbLine
 10
201.3538712836
 20
403.8083468984
 30
0.0
 11
220.2257365189
 21
403.8083468984
 31
0.0
  0
LINE
  5
330
330
1F
100
AcDbEntity
  8
0
  6
Continuous
 62
     7
370
    15
100
AcDbLine
 10
162.3257361553
 20
403.8083468984
 30
0.0
 11
185.211009366
 21
403.8083468984
 31
0.0
  0
LINE
  5
331
330
1F
100
AcDbEntity
  8
0
  6
Continuous
 62
     7
370
    15
100
AcDbLine
 10
197.3404633082
 20
403.8083468984
 30
0.0
 11
201.3538712836
 21
403.8083468984
 31
0.0
  0
LINE
  5
332
330
1F
100
AcDbEntity
  8
0
  6
Continuous
 62
     7
370
    15
100
AcDbLine
 10
199.2757367171
 20
398.6383443187
 30
0.0
 11
183.2757359571
 21
398.6383443187
 31
0.0
  0
LINE
  5
333
330
1F
100
AcDbEntity
  8
0
  6
Continuous
 62
     7
370
    15
100
AcDbLine
 10
199.2757367171
 20
399.9760699879
 30
0.0
 11
183.2757359571
 21
399.9760699879
 31
0.0
  0
LINE
  5
334
330
1F
100
AcDbEntity
  8
0
  6
Continuous
 62
     7
370
    15
100
AcDbLine
 10
199.2757367171
 20
406.3006238501
 30
0.0
 11
183.2757359571
 21
406.3006238501
 31
0.0
  0
LINE
  5
335
330
1F
100
AcDbEntity
  8
0
  6
Continuous
 62
     7
370
    15
100
AcDbLine
 10
199.2757367171
 20
407.6383457939
 30
0.0
 11
183.2757359571
 21
407.6383457939
 31
0.0
  0
LINE
  5
336
330
1F
100
AcDbEntity
  8
0
  6
Continuous
 62
     7
370
    15
100
AcDbLine
 10
197.2757363892
 20
429.7383459705
 30
0.0
 11
183.2757359571
 21
429.7383459705
 31
0.0
  0
LINE
  5
337
330
1F
100
AcDbEntity
  8
0
  6
Continuous
 62
     7
370
    15
100
AcDbLine
 10
197.2757363892
 20
429.7383459705
 30
0.0
 11
197.2757363892
 21
407.6383457939
 31
0.0
  0
LINE
  5
338
330
1F
100
AcDbEntity
  8
0
  6
Continuous
 62
     7
370
    15
100
AcDbLine
 10
197.2757363892
 20
407.6383457939
 30
0.0
 11
183.2757359571
 21
407.6383457939
 31
0.0
  0
LINE
  5
339
330
1F
100
AcDbEntity
  8
0
  6
Continuous
 62
     7
370
    15
100
AcDbLine
 10
197.2757363892
 20
429.9383460964
 30
0.0
 11
197.2757363892
 21
429.7383459705
 31
0.0
  0
LINE
  5
33A
330
1F
100
AcDbEntity
  8
0
  6
Continuous
 62
     7
370
    15
100
AcDbLine
 10
133.775735294
 20
437.9383462436
 30
0.0
 11
103.7757378272
 21
437.9383462436
 31
0.0
  0
LINE
  5
33B
330
1F
100
AcDbEntity
  8
0
  6
Continuous
 62
     7
370
    15
100
AcDbLine
 10
105.7757344297
 20
439.9383463386
 30
0.0
 11
131.7757349662
 21
439.9383463386
 31
0.0
  0
LINE
  5
33C
330
1F
100
AcDbEntity
  8
0
  6
Continuous
 62
     7
370
    15
100
AcDbLine
 10
275.9101819448
 20
437.9383462436
 30
0.0
 11
245.9101770274
 21
437.9383462436
 31
0.0
  0
LINE
  5
33D
330
1F
100
AcDbEntity
  8
0
  6
Continuous
 62
     7
370
    15
100
AcDbLine
 10
247.9101773552
 20
439.9383463386
 30
0.0
 11
273.9101778916
 21
439.9383463386
 31
0.0
  0
LINE
  5
33E
330
1F
100
AcDbEntity
  8
0
  6
Continuous
 62
     7
370
    15
100
AcDbLine
 10
206.2757360018
 20
437.9383462436
 30
0.0
 11
176.2757366724
 21
437.9383462436
 31
0.0
  0
LINE
  5
33F
330
1F
100
AcDbEntity
  8
0
  6
Continuous
 62
     7
370
    15
100
AcDbLine
 10
178.2757360689
 20
439.9383463386
 30
0.0
 11
204.2757366053
 21
439.9383463386
 31
0.0
  0
LINE
  5
340
330
1F
100
AcDbEntity
  8
0
  6
Continuous
 62
     7
370
    15
100
AcDbLine
 10
103.7757378272
 20
407.4383461337
 30
0.0
 11
133.775735294
 21
407.4383461337
 31
0.0
  0
LINE
  5
341
330
1F
100
AcDbEntity
  8
0
  6
Continuous
 62
     7
370
    15
100
AcDbLine
 10
131.7757349662
 20
405.4383458058
 30
0.0
 11
105.7757344297
 21
405.4383458058
 31
0.0
  0
LINE
  5
342
330
1F
100
AcDbEntity
  8
0
  6
Continuous
 62
     7
370
    15
100
AcDbLine
 10
103.7757378272
 20
409.4383464615
 30
0.0
 11
133.775735294
 21
409.4383464615
 31
0.0
  0
LINE
  5
343
330
1F
100
AcDbEntity
  8
0
  6
Continuous
 62
     7
370
    15
100
AcDbLine
 10
249.3921313635
 20
407.4383461337
 30
0.0
 11
278.775734847
 21
407.4383461337
 31
0.0
  0
LINE
  5
344
330
1F
100
AcDbEntity
  8
0
  6
Continuous
 62
     7
370
    15
100
AcDbLine
 10
248.7757373802
 20
407.4383461337
 30
0.0
 11
249.3921313635
 21
407.4383461337
 31
0.0
  0
LINE
  5
345
330
1F
100
AcDbEntity
  8
0
  6
Continuous
 62
     7
370
    15
100
AcDbLine
 10
251.3099443368
 20
405.4383458058
 30
0.0
 11
250.775737708
 21
405.4383458058
 31
0.0
  0
LINE
  5
346
330
1F
100
AcDbEntity
  8
0
  6
Continuous
 62
     7
370
    15
100
AcDbLine
 10
276.7757382444
 20
405.4383458058
 30
0.0
 11
251.3099443368
 21
405.4383458058
 31
0.0
  0
LINE
  5
347
330
1F
100
AcDbEntity
  8
0
  6
Continuous
 62
     7
370
    15
100
AcDbLine
 10
249.3921313635
 20
409.4383464615
 30
0.0
 11
278.775734847
 21
409.4383464615
 31
0.0
  0
LINE
  5
348
330
1F
100
AcDbEntity
  8
0
  6
Continuous
 62
     7
370
    15
100
AcDbLine
 10
248.7757373802
 20
409.4383464615
 30
0.0
 11
249.3921313635
 21
409.4383464615
 31
0.0
  0
LINE
  5
349
330
1F
100
AcDbEntity
  8
0
  6
Continuous
 62
     7
370
    15
100
AcDbLine
 10
198.8240671545
 20
403.9383446287
 30
0.0
 11
197.3683913439
 21
403.9383446287
 31
0.0
  0
LINE
  5
34A
330
1F
100
AcDbEntity
  8
0
  6
Continuous
 62
     7
370
    15
100
AcDbLine
 10
185.1830813303
 20
403.9383446287
 30
0.0
 11
162.2757371716
 21
403.9383446287
 31
0.0
  0
LINE
  5
34B
330
1F
100
AcDbEntity
  8
0
  6
Continuous
 62
     7
370
    15
100
AcDbLine
 10
220.2757355026
 20
403.9383446287
 30
0.0
 11
198.8240671545
 21
403.9383446287
 31
0.0
  0
LINE
  5
34C
330
1F
100
AcDbEntity
  8
0
  6
Continuous
 62
     7
370
    15
100
AcDbLine
 10
220.2757355026
 20
404.9587742846
 30
0.0
 11
197.7864154815
 21
404.9587742846
 31
0.0
  0
LINE
  5
34D
330
1F
100
AcDbEntity
  8
0
  6
Continuous
 62
     7
370
    15
100
AcDbLine
 10
184.7650571927
 20
404.9587742846
 30
0.0
 11
162.2757371716
 21
404.9587742846
 31
0.0
  0
LINE
  5
34E
330
1F
100
AcDbEntity
  8
0
  6
Continuous
 62
     7
370
    15
100
AcDbLine
 10
198.8240671545
 20
420.9700207646
 30
0.0
 11
220.2757355026
 21
420.9700207646
 31
0.0
  0
LINE
  5
34F
330
1F
100
AcDbEntity
  8
0
  6
Continuous
 62
     7
370
    15
100
AcDbLine
 10
162.2757371716
 20
420.9700207646
 30
0.0
 11
183.2757359571
 21
420.9700207646
 31
0.0
  0
LINE
  5
350
330
1F
100
AcDbEntity
  8
0
  6
Continuous
 62
     7
370
    15
100
AcDbLine
 10
197.2757363892
 20
420.9700207646
 30
0.0
 11
198.8240671545
 21
420.9700207646
 31
0.0
  0
LINE
  5
351
330
1F
100
AcDbEntity
  8
0
  6
Continuous
 62
     7
370
    15
100
AcDbLine
 10
198.8240671545
 20
421.9383457164
 30
0.0
 11
197.2757363892
 21
421.9383457164
 31
0.0
  0
LINE
  5
352
330
1F
100
AcDbEntity
  8
0
  6
Continuous
 62
     7
370
    15
100
AcDbLine
 10
183.2757359571
 20
421.9383457164
 30
0.0
 11
162.2757371716
 21
421.9383457164
 31
0.0
  0
LINE
  5
353
330
1F
100
AcDbEntity
  8
0
  6
Continuous
 62
     7
370
    15
100
AcDbLine
 10
220.2757355026
 20
421.9383457164
 30
0.0
 11
198.8240671545
 21
421.9383457164
 31
0.0
  0
LINE
  5
354
330
1F
100
AcDbEntity
  8
0
  6
Continuous
 62
     7
370
    15
100
AcDbLine
 10
130.8633443169
 20
420.6383460621
 30
0.0
 11
133.775735294
 21
420.6383460621
 31
0.0
  0
LINE
  5
355
330
1F
100
AcDbEntity
  8
0
  6
Continuous
 62
     7
370
    15
100
AcDbLine
 10
103.7757378272
 20
420.6383460621
 30
0.0
 11
130.8633443169
 21
420.6383460621
 31
0.0
  0
LINE
  5
356
330
1F
100
AcDbEntity
  8
0
  6
Continuous
 62
     7
370
    15
100
AcDbLine
 10
130.7021733574
 20
420.4383464019
 30
0.0
 11
103.9757337622
 21
420.4383464019
 31
0.0
  0
LINE
  5
357
330
1F
100
AcDbEntity
  8
0
  6
Continuous
 62
     7
370
    15
100
AcDbLine
 10
133.5757356338
 20
420.4383464019
 30
0.0
 11
130.7021733574
 21
420.4383464019
 31
0.0
  0
LINE
  5
358
330
1F
100
AcDbEntity
  8
0
  6
Continuous
 62
     7
370
    15
100
AcDbLine
 10
130.8633443169
 20
429.7383459705
 30
0.0
 11
103.7757378272
 21
429.7383459705
 31
0.0
  0
LINE
  5
359
330
1F
100
AcDbEntity
  8
0
  6
Continuous
 62
     7
370
    15
100
AcDbLine
 10
133.775735294
 20
429.7383459705
 30
0.0
 11
130.8633443169
 21
429.7383459705
 31
0.0
  0
LINE
  5
35A
330
1F
100
AcDbEntity
  8
0
  6
Continuous
 62
     7
370
    15
100
AcDbLine
 10
251.2182016126
 20
420.6383460621
 30
0.0
 11
278.775734847
 21
420.6383460621
 31
0.0
  0
LINE
  5
35B
330
1F
100
AcDbEntity
  8
0
  6
Continuous
 62
     7
370
    15
100
AcDbLine
 10
248.7757373802
 20
420.6383460621
 30
0.0
 11
251.2182016126
 21
420.6383460621
 31
0.0
  0
LINE
  5
35C
330
1F
100
AcDbEntity
  8
0
  6
Continuous
 62
     7
370
    15
100
AcDbLine
 10
251.2182016126
 20
429.7383459705
 30
0.0
 11
248.7757373802
 21
429.7383459705
 31
0.0
  0
LINE
  5
35D
330
1F
100
AcDbEntity
  8
0
  6
Continuous
 62
     7
370
    15
100
AcDbLine
 10
278.775734847
 20
429.7383459705
 30
0.0
 11
251.2182016126
 21
429.7383459705
 31
0.0
  0
LINE
  5
35E
330
1F
100
AcDbEntity
  8
0
  6
Continuous
 62
     7
370
    15
100
AcDbLine
 10
251.3856347851
 20
420.4383464019
 30
0.0
 11
248.9757370404
 21
420.4383464019
 31
0.0
  0
LINE
  5
35F
330
1F
100
AcDbEntity
  8
0
  6
Continuous
 62
     7
370
    15
100
AcDbLine
 10
278.575738912
 20
420.4383464019
 30
0.0
 11
251.3856347851
 21
420.4383464019
 31
0.0
  0
LINE
  5
360
330
1F
100
AcDbEntity
  8
0
  6
Continuous
 62
     7
370
    15
100
AcDbLine
 10
133.275738006
 20
418.9383452247
 30
0.0
 11
104.2757388405
 21
418.9383452247
 31
0.0
  0
LINE
  5
361
330
1F
100
AcDbEntity
  8
0
  6
Continuous
 62
     7
370
    15
100
AcDbLine
 10
133.275738006
 20
410.938345776
 30
0.0
 11
104.2757388405
 21
410.938345776
 31
0.0
  0
LINE
  5
362
330
1F
100
AcDbEntity
  8
0
  6
Continuous
 62
     7
370
    15
100
AcDbLine
 10
249.2757346682
 20
418.9383452247
 30
0.0
 11
278.2757338337
 21
418.9383452247
 31
0.0
  0
LINE
  5
363
330
1F
100
AcDbEntity
  8
0
  6
Continuous
 62
     7
370
    15
100
AcDbLine
 10
249.2757346682
 20
410.938345776
 30
0.0
 11
278.2757338337
 21
410.938345776
 31
0.0
  0
LINE
  5
364
330
1F
100
AcDbEntity
  8
0
  6
Continuous
 62
     7
370
    15
100
AcDbLine
 10
259.7925570063
 20
418.4383460741
 30
0.0
 11
257.8257378391
 21
418.4383460741
 31
0.0
  0
LINE
  5
365
330
1F
100
AcDbEntity
  8
0
  6
Continuous
 62
     7
370
    15
100
AcDbLine
 10
269.7257381133
 20
418.4383460741
 30
0.0
 11
259.7925570063
 21
418.4383460741
 31
0.0
  0
LINE
  5
366
330
1F
100
AcDbEntity
  8
0
  6
Continuous
 62
     7
370
    15
100
AcDbLine
 10
259.7925570063
 20
411.4383467893
 30
0.0
 11
257.8257378391
 21
411.4383467893
 31
0.0
  0
LINE
  5
367
330
1F
100
AcDbEntity
  8
0
  6
Continuous
 62
     7
370
    15
100
AcDbLine
 10
269.7257381133
 20
411.4383467893
 30
0.0
 11
259.7925570063
 21
411.4383467893
 31
0.0
  0
LINE
  5
368
330
1F
100
AcDbEntity
  8
0
  6
Continuous
 62
     7
370
    15
100
AcDbLine
 10
124.7257348351
 20
418.4383460741
 30
0.0
 11
112.8257345609
 21
418.4383460741
 31
0.0
  0
LINE
  5
369
330
1F
100
AcDbEntity
  8
0
  6
Continuous
 62
     7
370
    15
100
AcDbLine
 10
124.7257348351
 20
411.4383467893
 30
0.0
 11
112.8257345609
 21
411.4383467893
 31
0.0
  0
CIRCLE
  5
36A
330
1F
100
AcDbEntity
  8
0
  6
Continuous
 62
     7
370
    15
100
AcDbCircle
 10
263.7757363371
 20
432.9383461486
 30
0.0
 40
1.5
  0
LINE
  5
36B
330
1F
100
AcDbEntity
  8
0
  6
Continuous
 62
     7
370
    15
100
AcDbLine
 10
264.7757362775
 20
432.3609959754
 30
0.0
 11
264.7757362775
 21
433.5156965024
 31
0.0
  0
LINE
  5
36C
330
1F
100
AcDbEntity
  8
0
  6
Continuous
 62
     7
370
    15
100
AcDbLine
 10
264.7757362775
 20
433.5156965024
 30
0.0
 11
263.7757342509
 21
434.0930466495
 31
0.0
  0
LINE
  5
36D
330
1F
100
AcDbEntity
  8
0
  6
Continuous
 62
     7
370
    15
100
AcDbLine
 10
263.7757342509
 20
434.0930466495
 30
0.0
 11
262.7757396749
 21
433.5156965024
 31
0.0
  0
LINE
  5
36E
330
1F
100
AcDbEntity
  8
0
  6
Continuous
 62
     7
370
    15
100
AcDbLine
 10
262.7757396749
 20
432.3609959754
 30
0.0
 11
263.7757342509
 21
431.7836458284
 31
0.0
  0
LINE
  5
36F
330
1F
100
AcDbEntity
  8
0
  6
Continuous
 62
     7
370
    15
100
AcDbLine
 10
263.7757342509
 20
431.7836458284
 30
0.0
 11
264.7757362775
 21
432.3609959754
 31
0.0
  0
LINE
  5
370
330
1F
100
AcDbEntity
  8
0
  6
Continuous
 62
     7
370
    15
100
AcDbLine
 10
262.7757396749
 20
433.5156965024
 30
0.0
 11
262.7757396749
 21
432.3609959754
 31
0.0
  0
CIRCLE
  5
371
330
1F
100
AcDbEntity
  8
0
  6
Continuous
 62
     7
370
    15
100
AcDbCircle
 10
118.7757363371
 20
432.9383461486
 30
0.0
 40
1.5
  0
LINE
  5
372
330
1F
100
AcDbEntity
  8
0
  6
Continuous
 62
     7
370
    15
100
AcDbLine
 10
119.7757329992
 20
433.5156965024
 30
0.0
 11
118.7757384233
 21
434.0930466495
 31
0.0
  0
LINE
  5
373
330
1F
100
AcDbEntity
  8
0
  6
Continuous
 62
     7
370
    15
100
AcDbLine
 10
118.7757384233
 20
434.0930466495
 30
0.0
 11
117.7757363967
 21
433.5156965024
 31
0.0
  0
LINE
  5
374
330
1F
100
AcDbEntity
  8
0
  6
Continuous
 62
     7
370
    15
100
AcDbLine
 10
117.7757363967
 20
433.5156965024
 30
0.0
 11
117.7757363967
 21
432.3609959754
 31
0.0
  0
LINE
  5
375
330
1F
100
AcDbEntity
  8
0
  6
Continuous
 62
     7
370
    15
100
AcDbLine
 10
117.7757363967
 20
432.3609959754
 30
0.0
 11
118.7757384233
 21
431.7836458284
 31
0.0
  0
LINE
  5
376
330
1F
100
AcDbEntity
  8
0
  6
Continuous
 62
     7
370
    15
100
AcDbLine
 10
119.7757329992
 20
432.3609959754
 30
0.0
 11
119.7757329992
 21
433.5156965024
 31
0.0
  0
LINE
  5
377
330
1F
100
AcDbEntity
  8
0
  6
Continuous
 62
     7
370
    15
100
AcDbLine
 10
118.7757384233
 20
431.7836458284
 30
0.0
 11
119.7757329992
 21
432.3609959754
 31
0.0
  0
LINE
  5
378
330
1F
100
AcDbEntity
  8
0
  6
Continuous
 62
     7
370
    15
100
AcDbLine
 10
283.7757375292
 20
429.9383460964
 30
0.0
 11
243.775734698
 21
429.9383460964
 31
0.0
  0
LINE
  5
379
330
1F
100
AcDbEntity
  8
0
  6
Continuous
 62
     7
370
    15
100
AcDbLine
 10
283.7757375292
 20
435.9383461486
 30
0.0
 11
243.775734698
 21
435.9383461486
 31
0.0
  0
SPLINE
  5
37A
330
1F
100
AcDbEntity
  8
0
  6
Continuous
 62
     7
370
    15
100
AcDbSpline
210
0.0
220
0.0
230
1.0
 70
    11
 71
     3
 72
    58
 73
    54
 74
     0
 42
0.000000001
 43
0.00000001
 40
0.0
 40
0.0
 40
0.0
 40
0.0
 40
0.0312499999999993
 40
0.0312499999999993
 40
0.0624999999999986
 40
0.0624999999999986
 40
0.0937499999999979
 40
0.0937499999999979
 40
0.1249999999999972
 40
0.1249999999999972
 40
0.1874999999999956
 40
0.1874999999999956
 40
0.2499999999999939
 40
0.2499999999999939
 40
0.2812499999999951
 40
0.2812499999999951
 40
0.3124999999999963
 40
0.3124999999999963
 40
0.3437499999999975
 40
0.3437499999999975
 40
0.3749999999999987
 40
0.3749999999999987
 40
0.4062499999999999
 40
0.4062499999999999
 40
0.4375000000000011
 40
0.4375000000000011
 40
0.4687500000000023
 40
0.4687500000000023
 40
0.5000000000000034
 40
0.5000000000000034
 40
0.562500000000006
 40
0.562500000000006
 40
0.6250000000000087
 40
0.6250000000000087
 40
0.6562500000000083
 40
0.6562500000000083
 40
0.6875000000000081
 40
0.6875000000000081
 40
0.7187500000000079
 40
0.7187500000000079
 40
0.7500000000000075
 40
0.7500000000000075
 40
0.7812500000000073
 40
0.7812500000000073
 40
0.8125000000000071
 40
0.8125000000000071
 40
0.8437500000000069
 40
0.8437500000000069
 40
0.8750000000000066
 40
0.8750000000000066
 40
0.9375000000000033
 40
0.9375000000000033
 40
1.0
 40
1.0
 40
1.0
 40
1.0
 10
262.1257363370896
 20
432.9383461485714
 30
0.0
 10
262.1257363370897
 20
433.0474027408552
 30
0.0
 10
262.1364420232534
 20
433.1546276224282
 30
0.0
 10
262.1783803429289
 20
433.3655666434314
 30
0.0
 10
262.2101252569727
 20
433.4703770476275
 30
0.0
 10
262.292960059135
 20
433.6701722490011
 30
0.0
 10
262.3436433205042
 20
433.7649252457867
 30
0.0
 10
262.4633787358753
 20
433.9442491949139
 30
0.0
 10
262.5330412570286
 20
434.0291182460142
 30
0.0
 10
262.7612886623589
 20
434.2573212194138
 30
0.0
 10
262.9452977555298
 20
434.3802394104293
 30
0.0
 10
263.3423385739817
 20
434.5448488081607
 30
0.0
 10
263.5595303082911
 20
434.5882293072851
 30
0.0
 10
263.8824990514788
 20
434.5884042063046
 30
0.0
 10
263.9918554135126
 20
434.5776859002305
 30
0.0
 10
264.2035064783204
 20
434.5355796890516
 30
0.0
 10
264.3063819835571
 20
434.5044254713362
 30
0.0
 10
264.5062030898124
 20
434.4217906438164
 30
0.0
 10
264.6027763253625
 20
434.3701483729628
 30
0.0
 10
264.7815387076387
 20
434.2507539904301
 30
0.0
 10
264.8648745352284
 20
434.182589422941
 30
0.0
 10
265.0189798533123
 20
434.028625424642
 30
0.0
 10
265.087282109998
 20
433.9452698663802
 30
0.0
 10
265.2068056996487
 20
433.7666505415722
 30
0.0
 10
265.2584942448127
 20
433.6702144053426
 30
0.0
 10
265.341356158069
 20
433.4703581168023
 30
0.0
 10
265.3725908964834
 20
433.367511783181
 30
0.0
 10
265.41486423283
 20
433.1560325450049
 30
0.0
 10
265.4256971251534
 20
433.0466452475103
 30
0.0
 10
265.4258144346992
 20
432.7235451716082
 30
0.0
 10
265.3826309357813
 20
432.5063881484967
 30
0.0
 10
265.2183461009392
 20
432.1091447047842
 30
0.0
 10
265.0955596712225
 20
431.9250120617962
 30
0.0
 10
264.8676035909468
 20
431.6966151788602
 30
0.0
 10
264.7828218324767
 20
431.6268928226979
 30
0.0
 10
264.6035445455266
 20
431.5069605991795
 30
0.0
 10
264.5088468143372
 20
431.4562095877089
 30
0.0
 10
264.3092567003163
 20
431.3732468613318
 30
0.0
 10
264.2043807996607
 20
431.3413708017064
 30
0.0
 10
263.9934532870166
 20
431.2992410074953
 30
0.0
 10
263.8862854665531
 20
431.2884531995649
 30
0.0
 10
263.6684062163774
 20
431.288240667581
 30
0.0
 10
263.5608956721455
 20
431.2988632796168
 30
0.0
 10
263.3499463041512
 20
431.3406091749868
 30
0.0
 10
263.2452220503823
 20
431.3722151860242
 30
0.0
 10
263.0452080850793
 20
431.4549244036639
 30
0.0
 10
262.9504030231111
 20
431.5055384733528
 30
0.0
 10
262.771052680935
 20
431.6250587982996
 30
0.0
 10
262.6860940299853
 20
431.6946571311467
 30
0.0
 10
262.4576105648254
 20
431.9227796236841
 30
0.0
 10
262.3345746931824
 20
432.1066373286648
 30
0.0
 10
262.1696130742387
 20
432.5035421588138
 30
0.0
 10
262.1257363370897
 20
432.720232964004
 30
0.0
 10
262.1257363370897
 20
432.9383461485714
 30
0.0
  0
SPLINE
  5
37B
330
1F
100
AcDbEntity
  8
0
  6
Continuous
 62
     7
370
    15
100
AcDbSpline
210
0.0
220
0.0
230
1.0
 70
    11
 71
     3
 72
    58
 73
    54
 74
     0
 42
0.000000001
 43
0.00000001
 40
0.0
 40
0.0
 40
0.0
 40
0.0
 40
0.0312499999999992
 40
0.0312499999999992
 40
0.0624999999999984
 40
0.0624999999999984
 40
0.0937499999999977
 40
0.0937499999999977
 40
0.1249999999999969
 40
0.1249999999999969
 40
0.1874999999999953
 40
0.1874999999999953
 40
0.2499999999999938
 40
0.2499999999999938
 40
0.281249999999995
 40
0.281249999999995
 40
0.3124999999999962
 40
0.3124999999999962
 40
0.3437499999999974
 40
0.3437499999999974
 40
0.3749999999999987
 40
0.3749999999999987
 40
0.4062499999999999
 40
0.4062499999999999
 40
0.4375000000000011
 40
0.4375000000000011
 40
0.4687500000000023
 40
0.4687500000000023
 40
0.5000000000000036
 40
0.5000000000000036
 40
0.5625000000000059
 40
0.5625000000000059
 40
0.6250000000000082
 40
0.6250000000000082
 40
0.656250000000008
 40
0.656250000000008
 40
0.6875000000000078
 40
0.6875000000000078
 40
0.7187500000000075
 40
0.7187500000000075
 40
0.7500000000000073
 40
0.7500000000000073
 40
0.7812500000000071
 40
0.7812500000000071
 40
0.8125000000000069
 40
0.8125000000000069
 40
0.8437500000000067
 40
0.8437500000000067
 40
0.8750000000000064
 40
0.8750000000000064
 40
0.9375000000000032
 40
0.9375000000000032
 40
1.0
 40
1.0
 40
1.0
 40
1.0
 10
117.1257363370897
 20
432.9383461485714
 30
0.0
 10
117.1257363370897
 20
433.0474027408552
 30
0.0
 10
117.1364420232534
 20
433.1546276224282
 30
0.0
 10
117.1783803429289
 20
433.3655666434314
 30
0.0
 10
117.2101252569727
 20
433.4703770476275
 30
0.0
 10
117.292960059135
 20
433.6701722490012
 30
0.0
 10
117.3436433205042
 20
433.7649252457867
 30
0.0
 10
117.4633787358753
 20
433.9442491949139
 30
0.0
 10
117.5330412570286
 20
434.0291182460142
 30
0.0
 10
117.7612886623589
 20
434.2573212194138
 30
0.0
 10
117.9452977555297
 20
434.3802394104293
 30
0.0
 10
118.3423385739817
 20
434.5448488081607
 30
0.0
 10
118.5595303082912
 20
434.5882293072851
 30
0.0
 10
118.8824990514788
 20
434.5884042063046
 30
0.0
 10
118.9918554135125
 20
434.5776859002305
 30
0.0
 10
119.2035064783204
 20
434.5355796890516
 30
0.0
 10
119.306381983557
 20
434.5044254713362
 30
0.0
 10
119.5062030898125
 20
434.4217906438164
 30
0.0
 10
119.6027763253625
 20
434.3701483729628
 30
0.0
 10
119.7815387076387
 20
434.2507539904302
 30
0.0
 10
119.8648745352283
 20
434.182589422941
 30
0.0
 10
120.0189798533123
 20
434.028625424642
 30
0.0
 10
120.087282109998
 20
433.9452698663802
 30
0.0
 10
120.2068056996487
 20
433.7666505415722
 30
0.0
 10
120.2584942448127
 20
433.6702144053426
 30
0.0
 10
120.341356158069
 20
433.4703581168023
 30
0.0
 10
120.3725908964834
 20
433.367511783181
 30
0.0
 10
120.41486423283
 20
433.1560325450048
 30
0.0
 10
120.4256971251534
 20
433.0466452475103
 30
0.0
 10
120.4258144346993
 20
432.7235451716082
 30
0.0
 10
120.3826309357813
 20
432.5063881484967
 30
0.0
 10
120.2183461009392
 20
432.1091447047842
 30
0.0
 10
120.0955596712225
 20
431.9250120617962
 30
0.0
 10
119.8676035909468
 20
431.6966151788602
 30
0.0
 10
119.7828218324766
 20
431.6268928226979
 30
0.0
 10
119.6035445455266
 20
431.5069605991795
 30
0.0
 10
119.5088468143372
 20
431.4562095877089
 30
0.0
 10
119.3092567003164
 20
431.3732468613318
 30
0.0
 10
119.2043807996607
 20
431.3413708017064
 30
0.0
 10
118.9934532870166
 20
431.2992410074953
 30
0.0
 10
118.8862854665532
 20
431.2884531995649
 30
0.0
 10
118.6684062163773
 20
431.288240667581
 30
0.0
 10
118.5608956721455
 20
431.2988632796168
 30
0.0
 10
118.3499463041512
 20
431.3406091749868
 30
0.0
 10
118.2452220503823
 20
431.3722151860242
 30
0.0
 10
118.0452080850793
 20
431.4549244036639
 30
0.0
 10
117.9504030231111
 20
431.5055384733528
 30
0.0
 10
117.771052680935
 20
431.6250587982996
 30
0.0
 10
117.6860940299852
 20
431.6946571311467
 30
0.0
 10
117.4576105648254
 20
431.9227796236841
 30
0.0
 10
117.3345746931824
 20
432.1066373286648
 30
0.0
 10
117.1696130742387
 20
432.5035421588138
 30
0.0
 10
117.1257363370896
 20
432.720232964004
 30
0.0
 10
117.1257363370896
 20
432.9383461485714
 30
0.0
  0
LINE
  5
37C
330
1F
100
AcDbEntity
  8
0
  6
Continuous
 62
     7
370
    15
100
AcDbLine
 10
138.7757379762
 20
435.9383461486
 30
0.0
 11
98.775735145
 21
435.9383461486
 31
0.0
  0
LINE
  5
37D
330
1F
100
AcDbEntity
  8
0
  6
Continuous
 62
     7
370
    15
100
AcDbLine
 10
138.7757379762
 20
429.9383460964
 30
0.0
 11
98.775735145
 21
429.9383460964
 31
0.0
  0
LINE
  5
37E
330
1F
100
AcDbEntity
  8
0
  6
Continuous
 62
     7
370
    15
100
AcDbLine
 10
243.7828798048
 20
435.9383461486
 30
0.0
 11
138.7685928694
 21
435.9383461486
 31
0.0
  0
LINE
  5
37F
330
1F
100
AcDbEntity
  8
0
  6
Continuous
 62
     7
370
    15
100
AcDbLine
 10
243.7828798048
 20
429.9383460964
 30
0.0
 11
138.7685928694
 21
429.9383460964
 31
0.0
  0
LINE
  5
380
330
1F
100
AcDbEntity
  8
0
  6
Continuous
 62
     7
370
    15
100
AcDbLine
 10
445.5432676229
 20
381.0595712174
 30
0.0
 11
445.5432682814
 21
381.304493615
 31
0.0
  0
LINE
  5
381
330
1F
100
AcDbEntity
  8
0
  6
Continuous
 62
     7
370
    15
100
AcDbLine
 10
435.1504878684
 20
399.3072673585
 30
0.0
 11
434.9383900133
 21
399.4297524564
 31
0.0
  0
LINE
  5
382
330
1F
100
AcDbEntity
  8
0
  6
Continuous
 62
     7
370
    15
100
AcDbLine
 10
449.8842507739
 20
362.3840153344
 30
0.0
 11
450.2378042224
 21
362.5881173959
 31
0.0
  0
LINE
  5
383
330
1F
100
AcDbEntity
  8
0
  6
Continuous
 62
     7
370
    15
100
AcDbLine
 10
421.2901580167
 20
412.7323439835
 30
0.0
 11
420.9366045681
 21
412.5282419221
 31
0.0
  0
LINE
  5
384
330
1F
100
AcDbEntity
  8
0
  6
Continuous
 62
     7
370
    15
100
AcDbLine
 10
442.9137695375
 20
352.0326221886
 30
0.0
 11
441.9678572797
 21
351.4865586655
 31
0.0
  0
LINE
  5
385
330
1F
100
AcDbEntity
  8
0
  6
Continuous
 62
     7
370
    15
100
AcDbLine
 10
449.9672072963
 20
337.629776896
 30
0.0
 11
450.9131195541
 21
338.1758404192
 31
0.0
  0
LINE
  5
386
330
1F
100
AcDbEntity
  8
0
  6
Continuous
 62
     7
370
    15
100
AcDbLine
 10
448.3318193535
 20
355.1603957709
 30
0.0
 11
447.3859044614
 21
354.614330727
 31
0.0
  0
LINE
  5
387
330
1F
100
AcDbEntity
  8
0
  6
Continuous
 62
     7
370
    15
100
AcDbLine
 10
455.3852544781
 20
340.7575489576
 30
0.0
 11
456.3311693701
 21
341.3036140014
 31
0.0
  0
LINE
  5
388
330
1F
100
AcDbEntity
  8
0
  6
Continuous
 62
     7
370
    15
100
AcDbLine
 10
443.1388514892
 20
333.6878509949
 30
0.0
 11
449.9672072963
 21
337.629776896
 31
0.0
  0
LINE
  5
389
330
1F
100
AcDbEntity
  8
0
  6
Continuous
 62
     7
370
    15
100
AcDbLine
 10
441.9678572797
 20
351.4865586655
 30
0.0
 11
440.3283870194
 21
350.5401126299
 31
0.0
  0
LINE
  5
38A
330
1F
100
AcDbEntity
  8
0
  6
Continuous
 62
     7
370
    15
100
AcDbLine
 10
362.6703541999
 20
311.5661243784
 30
0.0
 11
362.6703517304
 21
309.9333095028
 31
0.0
  0
LINE
  5
38B
330
1F
100
AcDbEntity
  8
0
  6
Continuous
 62
     7
370
    15
100
AcDbLine
 10
371.8612464965
 20
294.0124850759
 30
0.0
 11
373.2752335868
 21
293.1959451552
 31
0.0
  0
LINE
  5
38C
330
1F
100
AcDbEntity
  8
0
  6
Continuous
 62
     7
370
    15
100
AcDbLine
 10
380.7763452923
 20
292.4523292229
 30
0.0
 11
382.1905589218
 21
293.2687373735
 31
0.0
  0
LINE
  5
38D
330
1F
100
AcDbEntity
  8
0
  6
Continuous
 62
     7
370
    15
100
AcDbLine
 10
367.1917757473
 20
319.2502055199
 30
0.0
 11
365.7775621178
 21
318.4337973693
 31
0.0
  0
LINE
  5
38E
330
1F
100
AcDbEntity
  8
0
  6
Continuous
 62
     7
370
    15
100
AcDbLine
 10
463.1745799985
 20
252.8777803449
 30
0.0
 11
463.1745801631
 21
251.2449639486
 31
0.0
  0
LINE
  5
38F
330
1F
100
AcDbEntity
  8
0
  6
Continuous
 62
     7
370
    15
100
AcDbLine
 10
472.3654749293
 20
235.3241395217
 30
0.0
 11
473.7794567512
 21
234.5076026424
 31
0.0
  0
LINE
  5
390
330
1F
100
AcDbEntity
  8
0
  6
Continuous
 62
     7
370
    15
100
AcDbLine
 10
481.280573725
 20
233.7639836688
 30
0.0
 11
482.6947873546
 21
234.5803918194
 31
0.0
  0
LINE
  5
391
330
1F
100
AcDbEntity
  8
0
  6
Continuous
 62
     7
370
    15
100
AcDbLine
 10
467.6960068142
 20
260.5618584451
 30
0.0
 11
466.2817931847
 21
259.7454502945
 31
0.0
  0
LINE
  5
392
330
1F
100
AcDbEntity
  8
0
  6
Continuous
 62
     7
370
    15
100
AcDbLine
 10
413.9355950193
 20
338.3126454049
 30
0.0
 11
413.9355945254
 21
336.6798293888
 31
0.0
  0
LINE
  5
393
330
1F
100
AcDbEntity
  8
0
  6
Continuous
 62
     7
370
    15
100
AcDbLine
 10
423.126488849
 20
320.7590082593
 30
0.0
 11
424.5404726289
 21
319.9424679682
 31
0.0
  0
LINE
  5
394
330
1F
100
AcDbEntity
  8
0
  6
Continuous
 62
     7
370
    15
100
AcDbLine
 10
432.0415867702
 20
319.1988521507
 30
0.0
 11
433.4558003998
 21
320.0152603013
 31
0.0
  0
LINE
  5
395
330
1F
100
AcDbEntity
  8
0
  6
Continuous
 62
     7
370
    15
100
AcDbLine
 10
418.4570198595
 20
345.9967254061
 30
0.0
 11
417.0428062299
 21
345.1803172555
 31
0.0
  0
LINE
  5
396
330
1F
100
AcDbEntity
  8
0
  6
Continuous
 62
     7
370
    15
100
AcDbLine
 10
413.9355950193
 20
387.305093023
 30
0.0
 11
413.9355945254
 21
385.6722770069
 31
0.0
  0
LINE
  5
397
330
1F
100
AcDbEntity
  8
0
  6
Continuous
 62
     7
370
    15
100
AcDbLine
 10
423.126488849
 20
369.7514558773
 30
0.0
 11
424.5404726289
 21
368.9349178677
 31
0.0
  0
LINE
  5
398
330
1F
100
AcDbEntity
  8
0
  6
Continuous
 62
     7
370
    15
100
AcDbLine
 10
432.0415867702
 20
368.1913005292
 30
0.0
 11
433.4558003998
 21
369.0077086798
 31
0.0
  0
LINE
  5
399
330
1F
100
AcDbEntity
  8
0
  6
Continuous
 62
     7
370
    15
100
AcDbLine
 10
418.4570198595
 20
394.9891722637
 30
0.0
 11
417.0428062299
 21
394.1727641131
 31
0.0
  0
LINE
  5
39A
330
1F
100
AcDbEntity
  8
0
  6
Continuous
 62
     7
370
    15
100
AcDbLine
 10
387.3443190217
 20
330.8840211195
 30
0.0
 11
385.9301052275
 21
330.0676128739
 31
0.0
  0
LINE
  5
39B
330
1F
100
AcDbEntity
  8
0
  6
Continuous
 62
     7
370
    15
100
AcDbLine
 10
400.928888402
 20
304.0861447275
 30
0.0
 11
402.3431021962
 21
304.9025529731
 31
0.0
  0
LINE
  5
39C
330
1F
100
AcDbEntity
  8
0
  6
Continuous
 62
     7
370
    15
100
AcDbLine
 10
396.259417982
 20
329.3238623198
 30
0.0
 11
394.8454359955
 21
330.1404021459
 31
0.0
  0
LINE
  5
39D
330
1F
100
AcDbEntity
  8
0
  6
Continuous
 62
     7
370
    15
100
AcDbLine
 10
489.8748046118
 20
271.6944316742
 30
0.0
 11
488.4605908176
 21
270.8780234285
 31
0.0
  0
LINE
  5
39E
330
1F
100
AcDbEntity
  8
0
  6
Continuous
 62
     7
370
    15
100
AcDbLine
 10
503.4593739921
 20
244.8965552821
 30
0.0
 11
504.8735877863
 21
245.7129635278
 31
0.0
  0
LINE
  5
39F
330
1F
100
AcDbEntity
  8
0
  6
Continuous
 62
     7
370
    15
100
AcDbLine
 10
507.9807957041
 20
252.5806395606
 30
0.0
 11
507.9807983383
 21
254.2134545312
 31
0.0
  0
LINE
  5
3A0
330
1F
100
AcDbEntity
  8
0
  6
Continuous
 62
     7
370
    15
100
AcDbLine
 10
498.7899035722
 20
270.1342728744
 30
0.0
 11
497.3759163173
 21
270.9508157419
 31
0.0
  0
LINE
  5
3A1
330
1F
100
AcDbEntity
  8
0
  6
Continuous
 62
     7
370
    15
100
AcDbLine
 10
450.3547268242
 20
362.5978826839
 30
0.0
 11
451.039435964
 21
362.9931568567
 31
0.0
  0
LINE
  5
3A2
330
1F
100
AcDbEntity
  8
0
  6
Continuous
 62
     7
370
    15
100
AcDbLine
 10
422.0417930592
 20
413.2239893926
 30
0.0
 11
421.3570839194
 21
412.8287152198
 31
0.0
  0
LINE
  5
3A3
330
1F
100
AcDbEntity
  8
0
  6
Continuous
 62
     7
370
    15
100
AcDbLine
 10
462.3610969253
 20
369.52901261
 30
0.0
 11
463.0826496547
 21
369.9455561343
 31
0.0
  0
LINE
  5
3A4
330
1F
100
AcDbEntity
  8
0
  6
Continuous
 62
     7
370
    15
100
AcDbLine
 10
434.0850067499
 20
420.1763886702
 30
0.0
 11
433.3634540205
 21
419.7598451459
 31
0.0
  0
LINE
  5
3A5
330
1F
100
AcDbEntity
  8
0
  6
Continuous
 62
     7
370
    15
100
AcDbLine
 10
378.0105095606
 20
325.4957276107
 30
0.0
 11
376.0015991241
 21
324.336008301
 31
0.0
  0
LINE
  5
3A6
330
1F
100
AcDbEntity
  8
0
  6
Continuous
 62
     7
370
    15
100
AcDbLine
 10
385.653026577
 20
324.67045359
 30
0.0
 11
385.5116265344
 21
324.752108637
 31
0.0
  0
LINE
  5
3A7
330
1F
100
AcDbEntity
  8
0
  6
Continuous
 62
     7
370
    15
100
AcDbLine
 10
480.5409951507
 20
266.3061381653
 30
0.0
 11
478.8560820267
 21
265.3334585229
 31
0.0
  0
LINE
  5
3A8
330
1F
100
AcDbEntity
  8
0
  6
Continuous
 62
     7
370
    15
100
AcDbLine
 10
498.646986243
 20
247.1923460517
 30
0.0
 11
498.6469888772
 21
247.3556258761
 31
0.0
  0
LINE
  5
3A9
330
1F
100
AcDbEntity
  8
0
  6
Continuous
 62
     7
370
    15
100
AcDbLine
 10
488.1835068988
 20
265.480867186
 30
0.0
 11
488.0421068562
 21
265.562522233
 31
0.0
  0
LINE
  5
3AA
330
1F
100
AcDbEntity
  8
0
  6
Continuous
 62
     7
370
    15
100
AcDbLine
 10
399.6182478538
 20
303.9068641022
 30
0.0
 11
400.6789075409
 21
304.5191699062
 31
0.0
  0
LINE
  5
3AB
330
1F
100
AcDbEntity
  8
0
  6
Continuous
 62
     7
370
    15
100
AcDbLine
 10
386.1800887227
 20
329.6345861744
 30
0.0
 11
385.1194290356
 21
329.0222803703
 31
0.0
  0
LINE
  5
3AC
330
1F
100
AcDbEntity
  8
0
  6
Continuous
 62
     7
370
    15
100
AcDbLine
 10
488.7105716787
 20
270.4449982497
 30
0.0
 11
487.6499119916
 21
269.8326924457
 31
0.0
  0
LINE
  5
3AD
330
1F
100
AcDbEntity
  8
0
  6
Continuous
 62
     7
370
    15
100
AcDbLine
 10
502.1487308098
 20
244.7172761775
 30
0.0
 11
503.2093904969
 21
245.3295819816
 31
0.0
  0
LINE
  5
3AE
330
1F
100
AcDbEntity
  8
0
  6
Continuous
 62
     7
370
    15
100
AcDbLine
 10
420.1998638267
 20
401.7686415651
 30
0.0
 11
415.9572231027
 21
399.3194172083
 31
0.0
  0
LINE
  5
3AF
330
1F
100
AcDbEntity
  8
0
  6
Continuous
 62
     7
370
    15
100
AcDbLine
 10
487.2208373174
 20
227.7075551817
 30
0.0
 11
491.4634780414
 21
230.1567795384
 31
0.0
  0
LINE
  5
3B0
330
1F
100
AcDbEntity
  8
0
  6
Continuous
 62
     7
370
    15
100
AcDbLine
 10
384.6903569956
 20
286.8971415857
 30
0.0
 11
388.9329977196
 21
289.3463659424
 31
0.0
  0
LINE
  5
3B1
330
1F
100
AcDbEntity
  8
0
  6
Continuous
 62
     7
370
    15
100
AcDbLine
 10
368.9346236658
 20
323.9883194155
 30
0.0
 11
364.6919829418
 21
321.5390950587
 31
0.0
  0
LWPOLYLINE
  5
3B2
330
1F
100
AcDbEntity
  8
0
  6
Continuous
 62
     7
370
    15
100
AcDbPolyline
 90
       21
 70
   128
 43
0.0
 10
444.3401680514
 20
376.0882131666
 10
444.5203827073
 20
376.4022617067
 10
445.0405926974
 20
377.6238530885
 10
445.3804984696
 20
379.0160176293
 10
445.5340335118
 20
380.5539165211
 10
445.4984582789
 20
382.2101059219
 10
445.2744076079
 20
383.9550297406
 10
444.8658795223
 20
385.7575492981
 10
444.2801647686
 20
387.5855011202
 10
443.5277151065
 20
389.4062596681
 10
442.6219576
 20
391.1873434095
 10
441.5790562241
 20
392.8969600483
 10
440.4176207881
 20
394.5046065025
 10
439.1583779924
 20
395.981587319
 10
437.8237983636
 20
397.3015524758
 10
436.4376979991
 20
398.4409463031
 10
435.0248117277
 20
399.3794364034
 10
433.6103523994
 20
400.1002714916
 10
432.2195612223
 20
400.5905957324
 10
430.8772568664
 20
400.8416482013
 10
430.0316531202
 20
400.8739773126
  0
ARC
  5
3B3
330
1F
100
AcDbEntity
  8
0
  6
Continuous
 62
     7
370
    15
100
AcDbCircle
 10
423.1333760624
 20
380.3687369608
 30
0.0
 40
22.42942062969923
100
AcDbArc
 50
2.3910770312
 51
57.6035480951
  0
LWPOLYLINE
  5
3B4
330
1F
100
AcDbEntity
  8
0
  6
Continuous
 62
     7
370
    15
100
AcDbPolyline
 90
        3
 70
   128
 43
0.0
 10
442.0964285459
 20
361.2539218996
 10
440.2270007997
 20
361.7003840221
 10
439.9126748719
 20
361.7969941521
  0
LWPOLYLINE
  5
3B5
330
1F
100
AcDbEntity
  8
0
  6
Continuous
 62
     7
370
    15
100
AcDbPolyline
 90
       49
 70
   128
 43
0.0
 10
414.947763934
 20
398.604988475
 10
414.9396888613
 20
399.2850263345
 10
415.0333194023
 20
401.477941655
 10
415.3114886025
 20
403.5438655815
 10
415.7716768705
 20
405.4641034185
 10
416.4097169367
 20
407.2212584257
 10
417.2198294145
 20
408.7994120516
 10
418.1946794351
 20
410.1842798335
 10
419.3254372338
 20
411.3633224307
 10
420.6018637606
 20
412.3258543788
 10
422.0124002422
 20
413.0631566467
 10
423.5442695982
 20
413.5685640991
 10
425.1836009055
 20
413.8374970676
 10
426.9155485954
 20
413.8675081304
 10
428.7244267961
 20
413.6583383988
 10
430.5938545423
 20
413.2118762763
 10
432.5069019719
 20
412.5321643158
 10
434.4462440135
 20
411.6253591678
 10
436.3943179437
 20
410.4996771265
 10
438.3334815197
 20
409.1653089256
 10
440.2461736645
 20
407.634339144
 10
442.1150725995
 20
405.9206305833
 10
443.9232527431
 20
404.039703273
 10
445.6543397152
 20
402.0085963195
 10
447.292656864
 20
399.8456981455
 10
448.8233658646
 20
397.5705984037
 10
450.2326050135
 20
395.2038986343
 10
451.5076130354
 20
392.7670373702
 10
452.6368416938
 20
390.282079119
 10
453.6100664266
 20
387.7715288206
 10
454.418471957
 20
385.258118165
 10
455.0547365872
 20
382.7646170056
 10
455.5131006869
 20
380.3135991428
 10
455.7894114744
 20
377.9272704639
 10
455.8811664807
 20
375.6272339638
 10
455.7875359397
 20
373.4343186434
 10
455.5093667395
 20
371.368391675
 10
455.0491784715
 20
369.4481568799
 10
454.4111384053
 20
367.6910018727
 10
453.6010259276
 20
366.1128452049
 10
452.6261759069
 20
364.727977423
 10
451.4954181082
 20
363.5489378677
 10
450.2189915815
 20
362.5864059196
 10
448.8084550998
 20
361.8491006098
 10
447.2765857438
 20
361.3436931574
 10
445.6372544365
 20
361.0747662726
 10
443.9053067467
 20
361.044752168
 10
442.0964285459
 20
361.2539218996
 10
442.0964285459
 20
361.2539218996
  0
LWPOLYLINE
  5
3B6
330
1F
100
AcDbEntity
  8
0
  6
Continuous
 62
     7
370
    15
100
AcDbPolyline
 90
       35
 70
   128
 43
0.0
 10
421.2901580167
 20
412.7323439835
 10
422.3659536907
 20
413.2672587081
 10
423.8978230467
 20
413.7726661605
 10
425.5371543541
 20
414.041599129
 10
427.2691020439
 20
414.0716101918
 10
429.0779802446
 20
413.8624404602
 10
430.9474079909
 20
413.4159783377
 10
432.8604554204
 20
412.7362663772
 10
434.799797462
 20
411.8294612292
 10
436.7478713922
 20
410.7037791879
 10
438.6870349683
 20
409.369410987
 10
440.5997271131
 20
407.8384412054
 10
442.4686260481
 20
406.1247326447
 10
444.2768061916
 20
404.2438053344
 10
446.0078931638
 20
402.2126983809
 10
447.6462103126
 20
400.0498002069
 10
449.1769193131
 20
397.7747004651
 10
450.5861584621
 20
395.4080006957
 10
451.861166484
 20
392.9711394316
 10
452.9903951423
 20
390.4861811804
 10
453.9636198751
 20
387.975630882
 10
454.7720254055
 20
385.4622202264
 10
455.4082900357
 20
382.968719067
 10
455.8666541354
 20
380.5177012042
 10
456.142964923
 20
378.1313725253
 10
456.2347199293
 20
375.8313360252
 10
456.1410893882
 20
373.6384207048
 10
455.862920188
 20
371.5724937364
 10
455.40273192
 20
369.6522589413
 10
454.7646918539
 20
367.8951039341
 10
453.9545793761
 20
366.3169472664
 10
452.9797293555
 20
364.9320794845
 10
451.8489715568
 20
363.7530399291
 10
450.57254503
 20
362.790507981
 10
450.2378042224
 20
362.5881173959
  0
LWPOLYLINE
  5
3B7
330
1F
100
AcDbEntity
  8
0
  6
Continuous
 62
     7
370
    15
100
AcDbPolyline
 90
       33
 70
   128
 43
0.0
 10
464.7248397038
 20
371.1750626086
 10
465.0458393217
 20
371.4704633601
 10
466.1400584369
 20
372.6999501161
 10
467.0761188689
 20
374.1324245584
 10
467.8455425157
 20
375.7549101134
 10
468.4413606593
 20
377.5527162654
 10
468.8581798201
 20
379.5095587165
 10
469.092222587
 20
381.6077183267
 10
469.1413710807
 20
383.8281954927
 10
469.0051801252
 20
386.1508789709
 10
468.6848811987
 20
388.55472915
 10
468.1833784824
 20
391.0179841361
 10
467.5052106652
 20
393.5183369366
 10
466.6565206502
 20
396.0331385011
 10
465.6449936517
 20
398.5396159686
 10
464.479790024
 20
401.0150696207
 10
463.1714636013
 20
403.4370842833
 10
461.7318615992
 20
405.783720953
 10
460.174021882
 20
408.0337342806
 10
458.512050473
 20
410.1667467051
 10
456.7610010412
 20
412.1634336153
 10
454.9367306797
 20
414.0057221973
 10
453.0557593068
 20
415.6769273543
 10
451.1351219871
 20
417.1619099636
 10
449.1922122395
 20
418.4472220867
 10
447.2446254264
 20
419.5212277972
 10
445.3099989751
 20
420.3741954192
 10
443.4058534209
 20
420.9984014582
 10
441.5494329165
 20
421.3881983385
 10
439.7575491154
 20
421.540055858
 10
438.0464305298
 20
421.4525873143
 10
436.4315720534
 20
421.1265998719
 10
435.9199567277
 20
420.9663101669
  0
LWPOLYLINE
  5
3B8
330
1F
100
AcDbEntity
  8
0
  6
Continuous
 62
     7
370
    15
100
AcDbPolyline
 90
       35
 70
   128
 43
0.0
 10
464.0815102081
 20
370.6077339989
 10
464.156924091
 20
370.6591985573
 10
465.3993934287
 20
371.6745658017
 10
466.493612544
 20
372.9040525576
 10
467.429672976
 20
374.336527
 10
468.1990966228
 20
375.959012555
 10
468.7949147664
 20
377.756818707
 10
469.2117339272
 20
379.713661158
 10
469.4457766941
 20
381.8118207683
 10
469.4949251878
 20
384.0322979343
 10
469.3587342323
 20
386.3549814124
 10
469.0384353058
 20
388.7588315916
 10
468.5369325895
 20
391.2220865777
 10
467.8587647723
 20
393.7224393782
 10
467.0100747573
 20
396.2372409427
 10
465.9985477588
 20
398.7437184101
 10
464.8333441311
 20
401.2191720623
 10
463.5250177083
 20
403.6411867249
 10
462.0854157063
 20
405.9878233946
 10
460.5275759891
 20
408.2378367222
 10
458.8656045801
 20
410.3708491466
 10
457.1145551483
 20
412.3675360568
 10
455.2902847868
 20
414.2098246389
 10
453.4093134138
 20
415.8810297959
 10
451.4886760942
 20
417.3660124051
 10
449.5457663466
 20
418.6513245283
 10
447.5981795335
 20
419.7253302388
 10
445.6635530822
 20
420.5782978608
 10
443.759407528
 20
421.2025038997
 10
441.9029870236
 20
421.5923007801
 10
440.1111032225
 20
421.7441582996
 10
438.3999846369
 20
421.6566897559
 10
436.7851261605
 20
421.3307023135
 10
435.2811527499
 20
420.7691357732
 10
435.1579509263
 20
420.7102377688
  0
LWPOLYLINE
  5
3B9
330
1F
100
AcDbEntity
  8
0
  6
Continuous
 62
     7
370
    15
100
AcDbPolyline
 90
       14
 70
   128
 43
0.0
 10
446.9134445458
 20
351.6365581093
 10
447.95288881
 20
350.9252744057
 10
448.9569359776
 20
350.0157618915
 10
449.8913946647
 20
348.9389931508
 10
450.7244426013
 20
347.7316366669
 10
451.4277118303
 20
346.4348063904
 10
451.9772527342
 20
345.0926654775
 10
452.3543521124
 20
343.7509182734
 10
452.546167359
 20
342.4552566987
 10
452.546167359
 20
341.2498025778
 10
452.3543521124
 20
340.1756061729
 10
451.9772527342
 20
339.2692486433
 10
451.4277118303
 20
338.5615941526
 10
450.9131195541
 20
338.1758404192
  0
ARC
  5
3BA
330
1F
100
AcDbEntity
  8
0
  6
Continuous
 62
     7
370
    15
100
AcDbCircle
 10
444.5748224506
 20
348.4133552207
 30
0.0
 40
3.982234318198349
100
AcDbArc
 50
54.0369207235
 51
114.6526302756
  0
LWPOLYLINE
  5
3BB
330
1F
100
AcDbEntity
  8
0
  6
Continuous
 62
     7
370
    15
100
AcDbPolyline
 90
       14
 70
   128
 43
0.0
 10
445.967532288
 20
351.0904945861
 10
447.0069765521
 20
350.3792108825
 10
448.0110237197
 20
349.4696983683
 10
448.9454824069
 20
348.3929296276
 10
449.7785303435
 20
347.1855731437
 10
450.4817995725
 20
345.8887428673
 10
451.0313404764
 20
344.5466019543
 10
451.4084398545
 20
343.2048547502
 10
451.6002551012
 20
341.9091931755
 10
451.6002551012
 20
340.7037390547
 10
451.4084398545
 20
339.6295426498
 10
451.0313404764
 20
338.7231851201
 10
450.4817995725
 20
338.0155306294
 10
449.9672072963
 20
337.629776896
  0
ARC
  5
3BC
330
1F
100
AcDbEntity
  8
0
  6
Continuous
 62
     7
370
    15
100
AcDbCircle
 10
443.6289101927
 20
347.8672916976
 30
0.0
 40
3.982234318198233
100
AcDbArc
 50
54.0369207235
 51
114.6526302756
  0
LWPOLYLINE
  5
3BD
330
1F
100
AcDbEntity
  8
0
  6
Continuous
 62
     7
370
    15
100
AcDbPolyline
 90
       17
 70
   128
 43
0.0
 10
451.3855794698
 20
354.2182666477
 10
452.4250237339
 20
353.5069829441
 10
453.4290709015
 20
352.5974704299
 10
454.3635295887
 20
351.5207016892
 10
455.1965775253
 20
350.3133452053
 10
455.8998467542
 20
349.0165149288
 10
456.4493876582
 20
347.6743740159
 10
456.8264870363
 20
346.3326268117
 10
457.018302283
 20
345.0369652371
 10
457.018302283
 20
343.8315111162
 10
456.8264870363
 20
342.7573147113
 10
456.4493876582
 20
341.8509571816
 10
455.8998467542
 20
341.143302691
 10
455.1965775253
 20
340.6584497829
 10
454.3635295887
 20
340.4129099737
 10
453.4290709015
 20
340.4150442681
 10
452.4659892359
 20
340.6501547101
  0
LWPOLYLINE
  5
3BE
330
1F
100
AcDbEntity
  8
0
  6
Continuous
 62
     7
370
    15
100
AcDbPolyline
 90
        9
 70
   128
 43
0.0
 10
445.8330337918
 20
352.1400156728
 10
445.9446719032
 20
352.6145649733
 10
446.3217712813
 20
353.5209225029
 10
446.8713121853
 20
354.2285769936
 10
447.5745814143
 20
354.7134299017
 10
448.4076293509
 20
354.9589697109
 10
449.342088038
 20
354.9568354165
 10
450.3461352056
 20
354.7070997463
 10
451.3855794698
 20
354.2182666477
  0
LWPOLYLINE
  5
3BF
330
1F
100
AcDbEntity
  8
0
  6
Continuous
 62
     7
370
    15
100
AcDbPolyline
 90
       14
 70
   128
 43
0.0
 10
452.3314943618
 20
354.7643316915
 10
453.370938626
 20
354.0530479879
 10
454.3749857936
 20
353.1435354737
 10
455.3094444807
 20
352.066766733
 10
456.1424924173
 20
350.8594102491
 10
456.8457616463
 20
349.5625799726
 10
457.3953025502
 20
348.2204390597
 10
457.7724019284
 20
346.8786918556
 10
457.964217175
 20
345.5830302809
 10
457.964217175
 20
344.37757616
 10
457.7724019284
 20
343.3033797551
 10
457.3953025502
 20
342.3970222255
 10
456.8457616463
 20
341.6893677348
 10
456.3311693701
 20
341.3036140014
  0
ARC
  5
3C0
330
1F
100
AcDbEntity
  8
0
  6
Continuous
 62
     7
370
    15
100
AcDbCircle
 10
449.9928722666
 20
351.5411288029
 30
0.0
 40
3.982234318197995
100
AcDbArc
 50
54.0369207235
 51
114.6526302756
  0
LINE
  5
3C1
330
1F
100
AcDbEntity
  8
0
  6
Continuous
 62
     7
370
    15
100
AcDbLine
 10
441.5468132265
 20
341.4284199869
 30
0.0
 11
450.210173012
 21
346.4296711364
 31
0.0
  0
LINE
  5
3C2
330
1F
100
AcDbEntity
  8
0
  6
Continuous
 62
     7
370
    15
100
AcDbLine
 10
443.1350579436
 20
333.703838721
 30
0.0
 11
450.210173012
 21
337.7882157116
 31
0.0
  0
LINE
  5
3C3
330
1F
100
AcDbEntity
  8
0
  6
Continuous
 62
     7
370
    15
100
AcDbLine
 10
450.210173012
 20
337.7882157116
 30
0.0
 11
449.9672072963
 21
337.629776896
 31
0.0
  0
LWPOLYLINE
  5
3C4
330
1F
100
AcDbEntity
  8
0
  6
Continuous
 62
     7
370
    15
100
AcDbPolyline
 90
       10
 70
   128
 43
0.0
 10
441.9678572797
 20
351.4865586655
 10
442.5871699864
 20
351.7473416699
 10
443.4846066184
 20
351.8609855175
 10
444.4677557815
 20
351.7225304612
 10
445.5026785202
 20
351.3367552258
 10
446.5536483834
 20
350.7169784855
 10
447.5843850017
 20
349.8845942656
 10
448.559306639
 20
348.868337833
 10
449.4447582549
 20
347.7032904367
 10
450.210173012
 20
346.4296711364
  0
LINE
  5
3C5
330
1F
100
AcDbEntity
  8
0
  6
Continuous
 62
     7
370
    15
100
AcDbLine
 10
450.210173012
 20
337.7882157116
 30
0.0
 11
450.210173012
 21
346.4296711364
 31
0.0
  0
LWPOLYLINE
  5
3C6
330
1F
100
AcDbEntity
  8
0
  6
Continuous
 62
     7
370
    15
100
AcDbPolyline
 90
       37
 70
   128
 43
0.0
 10
362.6703541999
 20
311.5661243784
 10
362.7649896799
 20
313.1440055439
 10
363.0472155142
 20
314.5844582486
 10
363.5119898862
 20
315.8617874993
 10
364.1510204033
 20
316.9531938404
 10
364.9529010747
 20
317.8392022679
 10
365.9033230454
 20
318.5040029366
 10
366.9853327454
 20
318.9357279927
 10
368.1796163815
 20
319.1266736558
 10
369.4648581851
 20
319.0734401776
 10
370.8181302705
 20
318.7769683807
 10
372.2152772252
 20
318.2425549039
 10
373.6313744567
 20
317.479733613
 10
375.0411443925
 20
316.502117464
 10
376.4194306325
 20
315.3271521567
 10
377.7416404906
 20
313.9758059083
 10
378.9841822682
 20
312.4721892625
 10
380.1248709181
 20
310.8431414358
 10
381.1433626833
 20
309.1177299737
 10
382.0214791011
 20
307.3267412712
 10
382.7435468123
 20
305.5021376337
 10
383.2966846864
 20
303.6764808736
 10
383.6710171898
 20
301.8823498155
 10
383.8598719496
 20
300.1517578
 10
383.8598719496
 20
298.5155884292
 10
383.6710171898
 20
297.0030434781
 10
383.2966846864
 20
295.6411136126
 10
382.7435468123
 20
294.4540901644
 10
382.0214791011
 20
293.4631742446
 10
381.1433626833
 20
292.6860371776
 10
380.1248709181
 20
292.1365482355
 10
378.9841822682
 20
291.8245084487
 10
377.7416404906
 20
291.7555060866
 10
376.4194306325
 20
291.9307447622
 10
375.0411443925
 20
292.347117917
 10
373.6313744567
 20
292.9971874896
 10
373.2752335868
 20
293.1959451552
  0
LWPOLYLINE
  5
3C7
330
1F
100
AcDbEntity
  8
0
  6
Continuous
 62
     7
370
    15
100
AcDbPolyline
 90
       45
 70
   128
 43
0.0
 10
362.6703517304
 20
309.9333095028
 10
362.7639177341
 20
308.368620256
 10
363.0427086003
 20
306.7277500077
 10
363.5010503095
 20
305.0441129649
 10
364.1296126031
 20
303.3519747101
 10
364.9155986443
 20
301.6857890951
 10
365.8430084356
 20
300.0794682218
 10
366.892960189
 20
298.5657163064
 10
368.0440854522
 20
297.1753453001
 10
369.2729453092
 20
295.9366635163
 10
370.5545256053
 20
294.8748855571
 10
371.8627427096
 20
294.0116213304
 10
373.1709545456
 20
293.3644532803
 10
374.4525348417
 20
292.9465501255
 10
375.6813946987
 20
292.7664205188
 10
376.8325199619
 20
292.8277305859
 10
377.8824769837
 20
293.129230969
 10
378.809886775
 20
293.6647872891
 10
379.595870182
 20
294.4234942578
 10
380.2244324756
 20
295.3899099359
 10
380.6827741848
 20
296.5443569053
 10
380.961565051
 20
297.863342071
 10
381.0551284205
 20
299.3200038301
 10
380.961565051
 20
300.8846915563
 10
380.6827741848
 20
302.5255557209
 10
380.2244324756
 20
304.2091988473
 10
379.595870182
 20
305.9013340603
 10
378.809886775
 20
307.5675181546
 10
377.8824769837
 20
309.1738390279
 10
376.8325199619
 20
310.6875939847
 10
375.6813946987
 20
312.0779649909
 10
374.4525348417
 20
313.3166467748
 10
373.1709545456
 20
314.378424734
 10
371.8627427096
 20
315.2416828775
 10
370.5545256053
 20
315.8888570108
 10
369.2729453092
 20
316.3067601656
 10
368.0440854522
 20
316.4868897723
 10
366.892960189
 20
316.4255797052
 10
365.8430084356
 20
316.1240762808
 10
364.9155986443
 20
315.5885199607
 10
364.1296126031
 20
314.8298145126
 10
363.5010503095
 20
313.8634018764
 10
363.0427086003
 20
312.7089488233
 10
362.7639177341
 20
311.3899697412
 10
362.6703517304
 20
309.9333095028
  0
LWPOLYLINE
  5
3C8
330
1F
100
AcDbEntity
  8
0
  6
Continuous
 62
     7
370
    15
100
AcDbPolyline
 90
       26
 70
   128
 43
0.0
 10
367.1917757473
 20
319.2502055199
 10
367.3175366749
 20
319.3204110872
 10
368.3995463749
 20
319.7521361433
 10
369.5938300111
 20
319.9430818064
 10
370.8790718146
 20
319.8898483282
 10
372.2323439
 20
319.5933765313
 10
373.6294908547
 20
319.0589630545
 10
375.0455880862
 20
318.2961417636
 10
376.4553580221
 20
317.3185256146
 10
377.8336442621
 20
316.1435603073
 10
379.1558541201
 20
314.7922140589
 10
380.3983958978
 20
313.2885974131
 10
381.5390845477
 20
311.6595495864
 10
382.5575763128
 20
309.9341381243
 10
383.4356927307
 20
308.1431494218
 10
384.1577604419
 20
306.3185457843
 10
384.7108983159
 20
304.4928890242
 10
385.0852308193
 20
302.6987579661
 10
385.2740855791
 20
300.9681659506
 10
385.2740855791
 20
299.3319965798
 10
385.0852308193
 20
297.8194516287
 10
384.7108983159
 20
296.4575217632
 10
384.1577604419
 20
295.270498315
 10
383.4356927307
 20
294.2795823952
 10
382.5575763128
 20
293.5024453282
 10
382.1905589218
 20
293.2687373735
  0
LWPOLYLINE
  5
3C9
330
1F
100
AcDbEntity
  8
0
  6
Continuous
 62
     7
370
    15
100
AcDbPolyline
 90
       17
 70
   128
 43
0.0
 10
372.7466253432
 20
309.628050045
 10
372.6793431679
 20
310.0574862519
 10
372.4877435946
 20
310.4992272508
 10
372.200986974
 20
310.8860204396
 10
371.8627427096
 20
311.1589796698
 10
371.5244931769
 20
311.2765519959
 10
371.2377418247
 20
311.2208379126
 10
371.046136983
 20
311.0003161138
 10
370.9788600761
 20
310.6485592116
 10
371.046136983
 20
310.219126046
 10
371.2377418247
 20
309.7773850477
 10
371.5244931769
 20
309.3905888165
 10
371.8627427096
 20
309.117626545
 10
372.200986974
 20
309.0000572601
 10
372.4877435946
 20
309.0557743859
 10
372.6793431679
 20
309.2762961842
 10
372.7466253432
 20
309.628050045
  0
LWPOLYLINE
  5
3CA
330
1F
100
AcDbEntity
  8
0
  6
Continuous
 62
     7
370
    15
100
AcDbPolyline
 90
       17
 70
   128
 43
0.0
 10
367.9736528
 20
306.8717789618
 10
367.9063706247
 20
307.3012121269
 10
367.7147710514
 20
307.7429561676
 10
367.4280196992
 20
308.129746315
 10
367.0897701665
 20
308.4027085865
 10
366.7515206337
 20
308.5202809127
 10
366.4647692815
 20
308.4645668294
 10
366.2731697082
 20
308.2440389473
 10
366.2058875329
 20
307.8922881284
 10
366.2731697082
 20
307.4628488796
 10
366.4647692815
 20
307.0211109226
 10
366.7515206337
 20
306.6343207751
 10
367.0897701665
 20
306.3613585036
 10
367.4280196992
 20
306.2437861774
 10
367.7147710514
 20
306.2995002608
 10
367.9063706247
 20
306.5200220591
 10
367.9736528
 20
306.8717789618
  0
LWPOLYLINE
  5
3CB
330
1F
100
AcDbEntity
  8
0
  6
Continuous
 62
     7
370
    15
100
AcDbPolyline
 90
       17
 70
   128
 43
0.0
 10
372.7466253432
 20
298.6047480382
 10
372.6793431679
 20
299.0341872869
 10
372.4877435946
 20
299.4759252439
 10
372.200986974
 20
299.8627184327
 10
371.8627427096
 20
300.1356776629
 10
371.5244931769
 20
300.2532499891
 10
371.2377418247
 20
300.1975359057
 10
371.046136983
 20
299.9770171488
 10
370.9788600761
 20
299.6252572047
 10
371.046136983
 20
299.1958209973
 10
371.2377418247
 20
298.754079999
 10
371.5244931769
 20
298.3672898515
 10
371.8627427096
 20
298.09432758
 10
372.200986974
 20
297.9767582951
 10
372.4877435946
 20
298.0324693371
 10
372.6793431679
 20
298.2529911355
 10
372.7466253432
 20
298.6047480382
  0
LWPOLYLINE
  5
3CC
330
1F
100
AcDbEntity
  8
0
  6
Continuous
 62
     7
370
    15
100
AcDbPolyline
 90
       17
 70
   128
 43
0.0
 10
377.5195978864
 20
301.3610221632
 10
377.4523157111
 20
301.7904553283
 10
377.2607108694
 20
302.2322024103
 10
376.9739595172
 20
302.6189925578
 10
376.6357099845
 20
302.8919548293
 10
376.2974657201
 20
303.0095241141
 10
376.0107143679
 20
302.9538100308
 10
375.8191095262
 20
302.7332851901
 10
375.7518273509
 20
302.3815343711
 10
375.8191095262
 20
301.9520951223
 10
376.0107143679
 20
301.510354124
 10
376.2974657201
 20
301.1235639766
 10
376.6357099845
 20
300.8506047464
 10
376.9739595172
 20
300.7330324202
 10
377.2607108694
 20
300.7887465036
 10
377.4523157111
 20
301.0092652605
 10
377.5195978864
 20
301.3610221632
  0
LWPOLYLINE
  5
3CD
330
1F
100
AcDbEntity
  8
0
  6
Continuous
 62
     7
370
    15
100
AcDbPolyline
 90
       37
 70
   128
 43
0.0
 10
463.1745799985
 20
252.8777803449
 10
463.2692181127
 20
254.4556599897
 10
463.5514413128
 20
255.8961142151
 10
464.0162156848
 20
257.1734434658
 10
464.6552462019
 20
258.2648498069
 10
465.4571295075
 20
259.1508567137
 10
466.4075541123
 20
259.8156558617
 10
467.4895611782
 20
260.2473824386
 10
468.6838448143
 20
260.4383281017
 10
469.9690866178
 20
260.3850946235
 10
471.3223587032
 20
260.0886228265
 10
472.719505658
 20
259.5542093497
 10
474.1356028894
 20
258.7913880589
 10
475.5453728253
 20
257.8137719098
 10
476.9236590653
 20
256.6388066025
 10
478.2458689233
 20
255.2874603542
 10
479.488410701
 20
253.7838437084
 10
480.6290993509
 20
252.1547958817
 10
481.6475937502
 20
250.4293828989
 10
482.5257075339
 20
248.6383926752
 10
483.2477726109
 20
246.8137936002
 10
483.8009131191
 20
244.9881353195
 10
484.1752456225
 20
243.1940042613
 10
484.3641003824
 20
241.4634122458
 10
484.3641003824
 20
239.8272428751
 10
484.1752456225
 20
238.314697924
 10
483.8009131191
 20
236.9527619747
 10
483.2477726109
 20
235.7657461309
 10
482.5257075339
 20
234.7748286904
 10
481.6475937502
 20
233.9976901028
 10
480.6290993509
 20
233.4482026813
 10
479.488410701
 20
233.1361628945
 10
478.2458689233
 20
233.0671544487
 10
476.9236590653
 20
233.242399208
 10
475.5453728253
 20
233.6587723628
 10
474.1356028894
 20
234.3088419354
 10
473.7794567512
 20
234.5076026424
  0
LWPOLYLINE
  5
3CE
330
1F
100
AcDbEntity
  8
0
  6
Continuous
 62
     7
370
    15
100
AcDbPolyline
 90
       45
 70
   128
 43
0.0
 10
463.1745801631
 20
251.2449639486
 10
463.2681461668
 20
249.6802686181
 10
463.546937033
 20
248.0394044535
 10
464.0052787422
 20
246.3557674107
 10
464.6338410358
 20
244.6636291559
 10
465.419827077
 20
242.997443541
 10
466.3472342342
 20
241.3911241883
 10
467.3971886217
 20
239.8773707522
 10
468.548313885
 20
238.486999746
 10
469.777173742
 20
237.2483179621
 10
471.058754038
 20
236.1865400029
 10
472.3669711424
 20
235.3232757762
 10
473.6751829784
 20
234.6761077261
 10
474.9567632745
 20
234.2582045713
 10
476.1856231315
 20
234.0780749646
 10
477.3367483947
 20
234.1393850318
 10
478.3867054164
 20
234.4408854148
 10
479.3141152078
 20
234.9764417349
 10
480.1000959806
 20
235.7351502243
 10
480.7286582742
 20
236.7015659024
 10
481.1869999834
 20
237.8560128718
 10
481.4657908496
 20
239.1749919538
 10
481.5593568533
 20
240.631658276
 10
481.4657908496
 20
242.1963475228
 10
481.1869999834
 20
243.8372116874
 10
480.7286582742
 20
245.5208487302
 10
480.1000959806
 20
247.212986985
 10
479.3141152078
 20
248.8791726004
 10
478.3867054164
 20
250.4854934738
 10
477.3367483947
 20
251.9992484305
 10
476.1856231315
 20
253.3896194368
 10
474.9567632745
 20
254.6283012206
 10
473.6751829784
 20
255.6900791798
 10
472.3669711424
 20
256.5533373233
 10
471.058754038
 20
257.2005114567
 10
469.777173742
 20
257.6184146114
 10
468.548313885
 20
257.7985442182
 10
467.3971886217
 20
257.737234151
 10
466.3472342342
 20
257.4357322473
 10
465.419827077
 20
256.9001744065
 10
464.6338410358
 20
256.1414659166
 10
464.0052787422
 20
255.1750502385
 10
463.546937033
 20
254.0206032691
 10
463.2681461668
 20
252.7016241871
 10
463.1745801631
 20
251.2449639486
  0
LWPOLYLINE
  5
3CF
330
1F
100
AcDbEntity
  8
0
  6
Continuous
 62
     7
370
    15
100
AcDbPolyline
 90
       26
 70
   128
 43
0.0
 10
467.6960068142
 20
260.5618584451
 10
467.8217677418
 20
260.6320640123
 10
468.9037748077
 20
261.0637905892
 10
470.0980584438
 20
261.2547362523
 10
471.3833002474
 20
261.2015027741
 10
472.7365723328
 20
260.9050309771
 10
474.1337192875
 20
260.3706175003
 10
475.549816519
 20
259.6077962095
 10
476.9595864548
 20
258.6301800604
 10
478.3378726948
 20
257.4552147531
 10
479.6600825529
 20
256.1038685048
 10
480.9026243305
 20
254.600251859
 10
482.0433129804
 20
252.9712040323
 10
483.0618073798
 20
251.2457910495
 10
483.9399211634
 20
249.4548008258
 10
484.6619862405
 20
247.6302017508
 10
485.2151267487
 20
245.8045434701
 10
485.5894592521
 20
244.0104124119
 10
485.7783140119
 20
242.2798203964
 10
485.7783140119
 20
240.6436510257
 10
485.5894592521
 20
239.1311060746
 10
485.2151267487
 20
237.7691701253
 10
484.6619862405
 20
236.5821542815
 10
483.9399211634
 20
235.591236841
 10
483.0618073798
 20
234.8140982534
 10
482.6947873546
 20
234.5803918194
  0
LWPOLYLINE
  5
3D0
330
1F
100
AcDbEntity
  8
0
  6
Continuous
 62
     7
370
    15
100
AcDbPolyline
 90
       17
 70
   128
 43
0.0
 10
473.2508537759
 20
250.939701449
 10
473.1835716007
 20
251.3691406978
 10
472.991966759
 20
251.8108816961
 10
472.7052154068
 20
252.1976748854
 10
472.3669711424
 20
252.4706341156
 10
472.0287216097
 20
252.5882064418
 10
471.7419702575
 20
252.5324893166
 10
471.5503654158
 20
252.3119705596
 10
471.4830885089
 20
251.9602106155
 10
471.5503654158
 20
251.5307804918
 10
471.7419702575
 20
251.0890394935
 10
472.0287216097
 20
250.7022432623
 10
472.3669711424
 20
250.4292809908
 10
472.7052154068
 20
250.311711706
 10
472.991966759
 20
250.367431873
 10
473.1835716007
 20
250.58795063
 10
473.2508537759
 20
250.939701449
  0
LWPOLYLINE
  5
3D1
330
1F
100
AcDbEntity
  8
0
  6
Continuous
 62
     7
370
    15
100
AcDbPolyline
 90
       17
 70
   128
 43
0.0
 10
468.4778812328
 20
248.1834334077
 10
468.4105990575
 20
248.6128665727
 10
468.2189994841
 20
249.0546106134
 10
467.932248132
 20
249.4414007609
 10
467.5939985992
 20
249.7143630324
 10
467.2557517007
 20
249.8319338379
 10
466.9689977143
 20
249.7762212752
 10
466.7773955068
 20
249.5556949139
 10
466.7101159657
 20
249.2039425742
 10
466.7773955068
 20
248.7745048461
 10
466.9689977143
 20
248.3327653685
 10
467.2557517007
 20
247.9459676166
 10
467.5939985992
 20
247.6730129495
 10
467.932248132
 20
247.5554345396
 10
468.2189994841
 20
247.6111547066
 10
468.4105990575
 20
247.831676505
 10
468.4778812328
 20
248.1834334077
  0
LWPOLYLINE
  5
3D2
330
1F
100
AcDbEntity
  8
0
  6
Continuous
 62
     7
370
    15
100
AcDbPolyline
 90
       17
 70
   128
 43
0.0
 10
473.2508537759
 20
239.916402484
 10
473.1835716007
 20
240.3458417328
 10
472.991966759
 20
240.7875827311
 10
472.7052154068
 20
241.1743728786
 10
472.3669711424
 20
241.4473321087
 10
472.0287216097
 20
241.5649044349
 10
471.7419702575
 20
241.5091903516
 10
471.5503654158
 20
241.2886715946
 10
471.4830885089
 20
240.9369116505
 10
471.5503654158
 20
240.5074754431
 10
471.7419702575
 20
240.0657344448
 10
472.0287216097
 20
239.6789442973
 10
472.3669711424
 20
239.4059820258
 10
472.7052154068
 20
239.288412741
 10
472.991966759
 20
239.3441268243
 10
473.1835716007
 20
239.5646455813
 10
473.2508537759
 20
239.916402484
  0
LWPOLYLINE
  5
3D3
330
1F
100
AcDbEntity
  8
0
  6
Continuous
 62
     7
370
    15
100
AcDbPolyline
 90
       17
 70
   128
 43
0.0
 10
478.0238210508
 20
242.6726796504
 10
477.9565441438
 20
243.1021097741
 10
477.7649393021
 20
243.5438568562
 10
477.4781879499
 20
243.9306470036
 10
477.1399384172
 20
244.2036092751
 10
476.8016941529
 20
244.32117856
 10
476.5149375323
 20
244.265467518
 10
476.323337959
 20
244.044939636
 10
476.2560557837
 20
243.693188817
 10
476.323337959
 20
243.2637495682
 10
476.5149375323
 20
242.8220116112
 10
476.8016941529
 20
242.4352123387
 10
477.1399384172
 20
242.1622591922
 10
477.4781879499
 20
242.0446807823
 10
477.7649393021
 20
242.1004009494
 10
477.9565441438
 20
242.3209197064
 10
478.0238210508
 20
242.6726796504
  0
LWPOLYLINE
  5
3D4
330
1F
100
AcDbEntity
  8
0
  6
Continuous
 62
     7
370
    15
100
AcDbPolyline
 90
       37
 70
   128
 43
0.0
 10
413.9355950193
 20
338.3126454049
 10
414.030232475
 20
339.8905260002
 10
414.3124563337
 20
341.3309830774
 10
414.7772300471
 20
342.6083115676
 10
415.4162599057
 20
343.6997175284
 10
416.2181418942
 20
344.5857255758
 10
417.1685671575
 20
345.2505235832
 10
418.2505748819
 20
345.6822490194
 10
419.4448572009
 20
345.8731969638
 10
420.7301013094
 20
345.8199613945
 10
422.0833725716
 20
345.5234908332
 10
423.4805213373
 20
344.9890763109
 10
424.8966158523
 20
344.2262550674
 10
426.3063857059
 20
343.2486389658
 10
427.6846734276
 20
342.0736735636
 10
429.0068839442
 20
340.7223269351
 10
430.2494217706
 20
339.2187125703
 10
431.3901137132
 20
337.5896643637
 10
432.4086048198
 20
335.8642502399
 10
433.2867199205
 20
334.0732622977
 10
434.0087882903
 20
332.2486601812
 10
434.5619255058
 20
330.4230034211
 10
434.9362599848
 20
328.6288717928
 10
435.1251121105
 20
326.8982812029
 10
435.1251121105
 20
325.2621139234
 10
434.9362599848
 20
323.7495673566
 10
434.5619255058
 20
322.3876331182
 10
434.0087882903
 20
321.2006149933
 10
433.2867199205
 20
320.2096952711
 10
432.4086048198
 20
319.4325574438
 10
431.3901137132
 20
318.8830681215
 10
430.2494217706
 20
318.5710347983
 10
429.0068839442
 20
318.5020240715
 10
427.6846734276
 20
318.677269211
 10
426.3063857058
 20
319.0936409398
 10
424.8966158523
 20
319.7437104648
 10
424.5404726289
 20
319.9424679682
  0
LWPOLYLINE
  5
3D5
330
1F
100
AcDbEntity
  8
0
  6
Continuous
 62
     7
370
    15
100
AcDbPolyline
 90
       45
 70
   128
 43
0.0
 10
413.9355945254
 20
336.6798293888
 10
414.0291598706
 20
335.1151389062
 10
414.3079507368
 20
333.4742729355
 10
414.766292446
 20
331.790634752
 10
415.3948540811
 20
330.0984980181
 10
416.1808394637
 20
328.4323101217
 10
417.1082485965
 20
326.825990389
 10
418.1582026548
 20
325.3122379034
 10
419.3093269302
 20
323.9218682279
 10
420.538187775
 20
322.6831858738
 10
421.8197696351
 20
321.6214070117
 10
423.1279828705
 20
320.758145779
 10
424.4361961059
 20
320.1109761605
 10
425.7177779661
 20
319.6930721028
 10
426.9466388109
 20
319.5129419258
 10
428.0977630863
 20
319.5742518028
 10
429.1477171446
 20
319.8757531361
 10
430.0751262774
 20
320.4113090759
 10
430.86111166
 20
321.1700175658
 10
431.4896732951
 20
322.1364324833
 10
431.9480150043
 20
323.2908805934
 10
432.2268058705
 20
324.6098614816
 10
432.3203712156
 20
326.0665237162
 10
432.2268058705
 20
327.6312141988
 10
431.9480150043
 20
329.2720801695
 10
431.4896732951
 20
330.955718353
 10
430.86111166
 20
332.6478550869
 10
430.0751262774
 20
334.3140429833
 10
429.1477171446
 20
335.920362716
 10
428.0977630863
 20
337.4341152016
 10
426.9466388109
 20
338.8244848771
 10
425.7177779661
 20
340.0631672312
 10
424.4361961059
 20
341.1249460933
 10
423.1279828705
 20
341.988207326
 10
421.8197696351
 20
342.6353769445
 10
420.538187775
 20
343.0532810022
 10
419.3093269302
 20
343.2334111791
 10
418.1582026548
 20
343.1721013022
 10
417.1082485965
 20
342.8705999689
 10
416.1808394637
 20
342.335044029
 10
415.3948540811
 20
341.5763355392
 10
414.766292446
 20
340.6099206217
 10
414.3079507368
 20
339.4554725115
 10
414.0291598706
 20
338.1364916234
 10
413.9355945254
 20
336.6798293888
  0
LWPOLYLINE
  5
3D6
330
1F
100
AcDbEntity
  8
0
  6
Continuous
 62
     7
370
    15
100
AcDbPolyline
 90
       26
 70
   128
 43
0.0
 10
418.4570198595
 20
345.9967254061
 10
418.5827807871
 20
346.0669317338
 10
419.6647885115
 20
346.49865717
 10
420.8590708305
 20
346.6896051144
 10
422.144314939
 20
346.6363695451
 10
423.4975862012
 20
346.3398989838
 10
424.8947349669
 20
345.8054844615
 10
426.3108294819
 20
345.042663218
 10
427.7205993354
 20
344.0650471164
 10
429.0988870571
 20
342.8900817142
 10
430.4210975737
 20
341.5387350857
 10
431.6636354001
 20
340.0351207209
 10
432.8043273427
 20
338.4060725143
 10
433.8228184493
 20
336.6806583905
 10
434.7009335501
 20
334.8896704483
 10
435.4230019198
 20
333.0650683318
 10
435.9761391353
 20
331.2394115717
 10
436.3504736144
 20
329.4452799434
 10
436.53932574
 20
327.7146893535
 10
436.53932574
 20
326.078522074
 10
436.3504736144
 20
324.5659755072
 10
435.9761391353
 20
323.2040412688
 10
435.4230019198
 20
322.0170231439
 10
434.7009335501
 20
321.0261034217
 10
433.8228184493
 20
320.2489655944
 10
433.4558003998
 20
320.0152603013
  0
LWPOLYLINE
  5
3D7
330
1F
100
AcDbEntity
  8
0
  6
Continuous
 62
     7
370
    15
100
AcDbPolyline
 90
       17
 70
   128
 43
0.0
 10
428.7848373887
 20
328.1075439501
 10
428.7175552134
 20
328.5369809175
 10
428.5259536645
 20
328.9787212507
 10
428.2392013244
 20
329.36551463
 10
427.9009537673
 20
329.6384750957
 10
427.5627062103
 20
329.7560469467
 10
427.275953541
 20
329.7003309621
 10
427.0843516627
 20
329.4798092586
 10
427.017070146
 20
329.1280542571
 10
427.0843516627
 20
328.6986176699
 10
427.275953541
 20
328.2568771466
 10
427.5627062103
 20
327.8700835772
 10
427.9009537673
 20
327.5971231116
 10
428.2392013244
 20
327.4795512605
 10
428.5259536645
 20
327.5352674352
 10
428.7175552134
 20
327.7557893288
 10
428.7848373887
 20
328.1075439501
  0
LWPOLYLINE
  5
3D8
330
1F
100
AcDbEntity
  8
0
  6
Continuous
 62
     7
370
    15
100
AcDbPolyline
 90
       17
 70
   128
 43
0.0
 10
424.0118663273
 20
325.3512708708
 10
423.9445847282
 20
325.7807075055
 10
423.75298285
 20
326.222448314
 10
423.4662304276
 20
326.6092417409
 10
423.1279828705
 20
326.8822021115
 10
422.7897353134
 20
326.9997740576
 10
422.5029828911
 20
326.9440579304
 10
422.3113810129
 20
326.7235359417
 10
422.2440994138
 20
326.3717809878
 10
422.3113810129
 20
325.942344353
 10
422.5029828911
 20
325.5006039248
 10
422.7897353134
 20
325.1138108782
 10
423.1279828705
 20
324.8408497471
 10
423.4662304276
 20
324.7232785615
 10
423.75298285
 20
324.7789943084
 10
423.9445847282
 20
324.9995159169
 10
424.0118663273
 20
325.3512708708
  0
LWPOLYLINE
  5
3D9
330
1F
100
AcDbEntity
  8
0
  6
Continuous
 62
     7
370
    15
100
AcDbPolyline
 90
       17
 70
   128
 43
0.0
 10
419.2388955951
 20
333.6182988478
 10
419.1716140783
 20
334.0477354351
 10
418.9800122001
 20
334.4894759584
 10
418.6932595308
 20
334.8762695278
 10
418.3550119737
 20
335.1492299934
 10
418.0167644166
 20
335.2668018445
 10
417.7300120766
 20
335.2110856698
 10
417.5384105276
 20
334.9905637762
 10
417.4711283523
 20
334.6388091549
 10
417.5384105276
 20
334.2093721875
 10
417.7300120766
 20
333.7676318543
 10
418.0167644166
 20
333.3808384749
 10
418.3550119737
 20
333.1078780093
 10
418.6932595308
 20
332.9903061582
 10
418.9800122001
 20
333.0460221429
 10
419.1716140783
 20
333.2665438464
 10
419.2388955951
 20
333.6182988478
  0
LWPOLYLINE
  5
3DA
330
1F
100
AcDbEntity
  8
0
  6
Continuous
 62
     7
370
    15
100
AcDbPolyline
 90
       17
 70
   128
 43
0.0
 10
424.0118663273
 20
336.3745721172
 10
423.9445847282
 20
336.8040087519
 10
423.75298285
 20
337.2457491802
 10
423.4662304276
 20
337.6325422268
 10
423.1279828705
 20
337.9055033578
 10
422.7897353134
 20
338.0230745435
 10
422.5029828911
 20
337.9673587965
 10
422.3113810129
 20
337.7468371881
 10
422.2440994138
 20
337.3950822342
 10
422.3113810129
 20
336.9656455994
 10
422.5029828911
 20
336.5239047909
 10
422.7897353134
 20
336.1371113641
 10
423.1279828705
 20
335.8641509935
 10
423.4662304276
 20
335.7465790474
 10
423.75298285
 20
335.8022951746
 10
423.9445847282
 20
336.0228171632
 10
424.0118663273
 20
336.3745721172
  0
LWPOLYLINE
  5
3DB
330
1F
100
AcDbEntity
  8
0
  6
Continuous
 62
     7
370
    15
100
AcDbPolyline
 90
       37
 70
   128
 43
0.0
 10
413.9355950193
 20
387.305093023
 10
414.030232475
 20
388.8829760898
 10
414.3124563337
 20
390.3234299351
 10
414.7772300471
 20
391.6007595659
 10
415.4162599057
 20
392.6921632453
 10
416.2181418942
 20
393.5781739544
 10
417.1685671575
 20
394.2429727222
 10
418.2505748819
 20
394.6746989188
 10
419.4448572009
 20
394.8656453423
 10
420.7301013094
 20
394.8124074917
 10
422.0833725716
 20
394.5159422536
 10
423.4805213373
 20
393.9815277313
 10
424.8966158523
 20
393.218701925
 10
426.3063857059
 20
392.2410858234
 10
427.6846734276
 20
391.0661227027
 10
429.0068839442
 20
389.7147760741
 10
430.2494217706
 20
388.2111617093
 10
431.3901137132
 20
386.5821150236
 10
432.4086048198
 20
384.8567008999
 10
433.2867199205
 20
383.0657129577
 10
434.0087882903
 20
381.24110894
 10
434.5619255058
 20
379.4154525601
 10
434.9362599848
 20
377.6213203615
 10
435.1251121105
 20
375.8907298666
 10
435.1251121105
 20
374.2545635377
 10
434.9362599848
 20
372.742017066
 10
434.5619255058
 20
371.3800822572
 10
434.0087882903
 20
370.1930645125
 10
433.2867199205
 20
369.2021428892
 10
432.4086048198
 20
368.4250050619
 10
431.3901137132
 20
367.8755157396
 10
430.2494217706
 20
367.5634839373
 10
429.0068839442
 20
367.4944732105
 10
427.6846734276
 20
367.66971835
 10
426.3063857059
 20
368.0860893183
 10
424.8966158523
 20
368.7361588434
 10
424.5404726289
 20
368.9349178677
  0
LWPOLYLINE
  5
3DC
330
1F
100
AcDbEntity
  8
0
  6
Continuous
 62
     7
370
    15
100
AcDbPolyline
 90
       45
 70
   128
 43
0.0
 10
413.9355945254
 20
385.6722770069
 10
414.0291598706
 20
384.1075881402
 10
414.3079507368
 20
382.4667209338
 10
414.766292446
 20
380.783083891
 10
415.3948540811
 20
379.0909460164
 10
416.1808394637
 20
377.4247577398
 10
417.1082485965
 20
375.8184402884
 10
418.1582026548
 20
374.3046870424
 10
419.3093269302
 20
372.9143166064
 10
420.538187775
 20
371.6756342523
 10
421.8197696351
 20
370.6138553902
 10
423.1279828705
 20
369.750593397
 10
424.4361961059
 20
369.103424539
 10
425.7177779661
 20
368.6855204814
 10
426.9466388109
 20
368.5053903044
 10
428.0977630863
 20
368.5667009418
 10
429.1477171446
 20
368.8682030356
 10
430.0751262774
 20
369.403756694
 10
430.86111166
 20
370.1624655641
 10
431.4896732951
 20
371.1288816223
 10
431.9480150043
 20
372.2833285918
 10
432.2268058705
 20
373.6023107156
 10
432.3203712156
 20
375.0589713342
 10
432.2268058705
 20
376.6236632428
 10
431.9480150043
 20
378.2645274074
 10
431.4896732951
 20
379.9481644501
 10
430.86111166
 20
381.6403023247
 10
430.0751262774
 20
383.3064936432
 10
429.1477171446
 20
384.9128141364
 10
428.0977630863
 20
386.4265612987
 10
426.9466388109
 20
387.8169317347
 10
425.7177779661
 20
389.0556140888
 10
424.4361961059
 20
390.1173929509
 10
423.1279828705
 20
390.9806549441
 10
421.8197696351
 20
391.6278238021
 10
420.538187775
 20
392.0457278598
 10
419.3093269302
 20
392.2258580368
 10
418.1582026548
 20
392.1645473994
 10
417.1082485965
 20
391.8630513893
 10
416.1808394637
 20
391.327494689
 10
415.3948540811
 20
390.568782777
 10
414.766292446
 20
389.6023667188
 10
414.3079507368
 20
388.4479197494
 10
414.0291598706
 20
387.1289406674
 10
413.9355945254
 20
385.6722770069
  0
LWPOLYLINE
  5
3DD
330
1F
100
AcDbEntity
  8
0
  6
Continuous
 62
     7
370
    15
100
AcDbPolyline
 90
       26
 70
   128
 43
0.0
 10
418.4570198595
 20
394.9891722637
 10
418.5827807871
 20
395.0593808728
 10
419.6647885115
 20
395.4911070694
 10
420.8590708305
 20
395.6820534929
 10
422.144314939
 20
395.6288156423
 10
423.4975862012
 20
395.3323504042
 10
424.8947349669
 20
394.7979358819
 10
426.3108294819
 20
394.0351100756
 10
427.7205993354
 20
393.057493974
 10
429.0988870571
 20
391.8825308533
 10
430.4210975737
 20
390.5311842247
 10
431.6636354001
 20
389.0275698599
 10
432.8043273427
 20
387.3985231742
 10
433.8228184493
 20
385.6731090505
 10
434.7009335501
 20
383.8821211083
 10
435.4230019198
 20
382.0575170906
 10
435.9761391353
 20
380.2318607107
 10
436.3504736144
 20
378.4377285121
 10
436.53932574
 20
376.7071380172
 10
436.53932574
 20
375.0709716883
 10
436.3504736144
 20
373.5584252166
 10
435.9761391353
 20
372.1964904078
 10
435.4230019198
 20
371.0094726631
 10
434.7009335501
 20
370.0185510398
 10
433.8228184493
 20
369.2414132125
 10
433.4558003998
 20
369.0077086798
  0
LWPOLYLINE
  5
3DE
330
1F
100
AcDbEntity
  8
0
  6
Continuous
 62
     7
370
    15
100
AcDbPolyline
 90
       17
 70
   128
 43
0.0
 10
428.7848373887
 20
377.0999915682
 10
428.7175552134
 20
377.5294308169
 10
428.5259536645
 20
377.9711699144
 10
428.2392013244
 20
378.357963674
 10
427.9009537673
 20
378.630924805
 10
427.5627062103
 20
378.7484959907
 10
427.275953541
 20
378.6927796258
 10
427.0843516627
 20
378.4722591581
 10
427.017070146
 20
378.1205018752
 10
427.0843516627
 20
377.6910660485
 10
427.275953541
 20
377.2493267609
 10
427.5627062103
 20
376.8625328113
 10
427.9009537673
 20
376.5895716802
 10
428.2392013244
 20
376.4720004945
 10
428.5259536645
 20
376.5277170495
 10
428.7175552134
 20
376.7482377073
 10
428.7848373887
 20
377.0999915682
  0
LWPOLYLINE
  5
3DF
330
1F
100
AcDbEntity
  8
0
  6
Continuous
 62
     7
370
    15
100
AcDbPolyline
 90
       17
 70
   128
 43
0.0
 10
424.0118663273
 20
374.3437196296
 10
423.9445847282
 20
374.7731555039
 10
423.75298285
 20
375.2148978333
 10
423.4662304276
 20
375.6016916404
 10
423.1279828705
 20
375.8746497295
 10
422.7897353134
 20
375.9922239571
 10
422.5029828911
 20
375.9365074496
 10
422.3113810129
 20
375.71598394
 10
422.2440994138
 20
375.3642297466
 10
422.3113810129
 20
374.9347938723
 10
422.5029828911
 20
374.4930515429
 10
422.7897353134
 20
374.1062607776
 10
423.1279828705
 20
373.8332996466
 10
423.4662304276
 20
373.7157284609
 10
423.75298285
 20
373.7714419265
 10
423.9445847282
 20
373.9919654361
 10
424.0118663273
 20
374.3437196296
  0
LWPOLYLINE
  5
3E0
330
1F
100
AcDbEntity
  8
0
  6
Continuous
 62
     7
370
    15
100
AcDbPolyline
 90
       17
 70
   128
 43
0.0
 10
419.2388955951
 20
382.6107464659
 10
419.1716140783
 20
383.0401853345
 10
418.9800122001
 20
383.4819246221
 10
418.6932595308
 20
383.8687185717
 10
418.3550119737
 20
384.1416797028
 10
418.0167644166
 20
384.2592508884
 10
417.7300120766
 20
384.2035343335
 10
417.5384105276
 20
383.9830136757
 10
417.4711283523
 20
383.631256773
 10
417.5384105276
 20
383.201820566
 10
417.7300120766
 20
382.7600814686
 10
418.0167644166
 20
382.373287709
 10
418.3550119737
 20
382.100326578
 10
418.6932595308
 20
381.9827553923
 10
418.9800122001
 20
382.0384717572
 10
419.1716140783
 20
382.2589922249
 10
419.2388955951
 20
382.6107464659
  0
LWPOLYLINE
  5
3E1
330
1F
100
AcDbEntity
  8
0
  6
Continuous
 62
     7
370
    15
100
AcDbPolyline
 90
       17
 70
   128
 43
0.0
 10
424.0118663273
 20
385.3670185946
 10
423.9445847282
 20
385.7964575107
 10
423.75298285
 20
386.2381967983
 10
423.4662304276
 20
386.6249936472
 10
423.1279828705
 20
386.8979547782
 10
422.7897353134
 20
387.0155259639
 10
422.5029828911
 20
386.9598064146
 10
422.3113810129
 20
386.7392859469
 10
422.2440994138
 20
386.3875287116
 10
422.3113810129
 20
385.9580958791
 10
422.5029828911
 20
385.5163565916
 10
422.7897353134
 20
385.1295597426
 10
423.1279828705
 20
384.8565986116
 10
423.4662304276
 20
384.7390274259
 10
423.75298285
 20
384.7947469752
 10
423.9445847282
 20
385.0152674429
 10
424.0118663273
 20
385.3670185946
  0
ARC
  5
3E2
330
1F
100
AcDbEntity
  8
0
  6
Continuous
 62
     7
370
    15
100
AcDbCircle
 10
398.2848125046
 20
308.6584495998
 30
0.0
 40
5.273559647207781
100
AcDbArc
 50
270.2587073167
 51
326.5387834573
  0
LWPOLYLINE
  5
3E3
330
1F
100
AcDbEntity
  8
0
  6
Continuous
 62
     7
370
    15
100
AcDbPolyline
 90
       14
 70
   128
 43
0.0
 10
398.3077179412
 20
325.1365610422
 10
397.8941836003
 20
325.6096214128
 10
396.5719737422
 20
326.9609676612
 10
395.1936875022
 20
328.1359329685
 10
393.7839175664
 20
329.1135491175
 10
392.3678203349
 20
329.8763704084
 10
390.9706733802
 20
330.4107838852
 10
389.6174012948
 20
330.7072556822
 10
388.3321594912
 20
330.7604891604
 10
387.1378758551
 20
330.5695434972
 10
386.0558661551
 20
330.1378184411
 10
385.1054441844
 20
329.4730177724
 10
384.303563513
 20
328.5870093449
 10
384.0125342557
 20
328.1491805084
  0
LWPOLYLINE
  5
3E4
330
1F
100
AcDbEntity
  8
0
  6
Continuous
 62
     7
370
    15
100
AcDbPolyline
 90
        3
 70
   128
 43
0.0
 10
402.3431021962
 20
304.9025529731
 10
402.7101195872
 20
305.1362609278
 10
403.5690512864
 20
305.8923146423
  0
LWPOLYLINE
  5
3E5
330
1F
100
AcDbEntity
  8
0
  6
Continuous
 62
     7
370
    15
100
AcDbPolyline
 90
       12
 70
   128
 43
0.0
 10
399.6057908259
 20
326.0884394168
 10
399.3083973945
 20
326.4260296585
 10
397.9861875364
 20
327.7773759069
 10
396.6079012964
 20
328.9523412141
 10
395.1981313606
 20
329.9299573632
 10
393.7820341291
 20
330.692778654
 10
392.3848871744
 20
331.2271921308
 10
391.031615089
 20
331.5236639278
 10
389.7463732854
 20
331.576897406
 10
388.5520896493
 20
331.3859517429
 10
387.4700799493
 20
330.9542266867
 10
387.3443190217
 20
330.8840211195
  0
ARC
  5
3E6
330
1F
100
AcDbEntity
  8
0
  6
Continuous
 62
     7
370
    15
100
AcDbCircle
 10
388.0506703518
 20
315.5453305468
 30
0.0
 40
16.03843743869034
100
AcDbArc
 50
42.2692049339
 51
59.2150536263
  0
LWPOLYLINE
  5
3E7
330
1F
100
AcDbEntity
  8
0
  6
Continuous
 62
     7
370
    15
100
AcDbPolyline
 90
       30
 70
   128
 43
0.0
 10
500.8391096885
 20
244.1953542655
 10
501.8475204544
 20
244.3005661524
 10
502.9709183596
 20
244.6491247866
 10
503.9692033451
 20
245.2339201247
 10
504.8245630989
 20
246.0445139026
 10
505.5217351936
 20
247.066440684
 10
506.048275772
 20
248.2814725267
 10
506.3947913554
 20
249.667911022
 10
506.5550968937
 20
251.20103142
 10
506.526336938
 20
252.8534628725
 10
506.309011982
 20
254.5957329266
 10
505.9070153409
 20
256.3967329316
 10
505.3275119789
 20
258.2243324818
 10
504.5808436791
 20
260.0459178151
 10
503.6803341138
 20
261.8289849559
 10
502.6420570374
 20
263.5417115613
 10
501.4845412583
 20
265.1535318037
 10
500.2284334638
 20
266.6356899556
 10
498.8961557773
 20
267.9617300961
 10
497.5114842897
 20
269.1079918928
 10
496.099127591
 20
270.0540212125
 10
494.6842842283
 20
270.7829351016
 10
493.2922107005
 20
271.281722889
 10
491.9477420381
 20
271.5414864473
 10
490.6748703345
 20
271.5575952879
 10
489.4963074729
 20
271.3297564823
 10
488.4330952673
 20
270.8620328767
 10
487.5041971654
 20
270.162777654
 10
486.7261953178
 20
269.2444624408
 10
486.5430198458
 20
268.9595910631
  0
LWPOLYLINE
  5
3E8
330
1F
100
AcDbEntity
  8
0
  6
Continuous
 62
     7
370
    15
100
AcDbPolyline
 90
       25
 70
   128
 43
0.0
 10
504.8735877863
 20
245.7129635278
 10
505.3834171393
 20
246.0503283704
 10
506.2387768931
 20
246.8609221483
 10
506.9359489878
 20
247.8828489297
 10
507.4624895662
 20
249.0978807723
 10
507.8090051496
 20
250.4843192676
 10
507.9693106879
 20
252.0174396657
 10
507.9405507321
 20
253.6698711182
 10
507.7232257762
 20
255.4121411722
 10
507.3212291351
 20
257.2131411772
 10
506.7417257731
 20
259.0407407274
 10
505.9950574732
 20
260.8623260607
 10
505.094547908
 20
262.6453932015
 10
504.0562708316
 20
264.358119807
 10
502.8987550525
 20
265.9699400493
 10
501.6426472579
 20
267.4520982012
 10
500.3103695714
 20
268.7781383417
 10
498.9256980839
 20
269.9244001385
 10
497.5133413852
 20
270.8704294582
 10
496.0984980225
 20
271.5993433473
 10
494.7064244947
 20
272.0981311346
 10
493.3619558322
 20
272.3578946929
 10
492.0890841287
 20
272.3740035335
 10
490.9105212671
 20
272.1461647279
 10
489.8748046118
 20
271.6944316742
  0
ARC
  5
3E9
330
1F
100
AcDbEntity
  8
0
  6
Continuous
 62
     7
370
    15
100
AcDbCircle
 10
488.098954914
 20
253.3492132144
 30
0.0
 40
19.9006183572735
100
AcDbArc
 50
2.4890160225
 51
57.5056180811
  0
LWPOLYLINE
  5
3EA
330
1F
100
AcDbEntity
  8
0
  6
Continuous
 62
     7
370
    15
100
AcDbPolyline
 90
       37
 70
   128
 43
0.0
 10
420.3582220489
 20
412.1665336028
 10
420.6614383309
 20
412.3866027526
 10
422.0392135404
 20
413.1870827243
 10
423.5421161576
 20
413.7568659656
 10
425.1565340677
 20
414.0907914586
 10
426.8678469239
 20
414.1858437367
 10
428.6605571984
 20
414.0411502354
 10
430.5184294642
 20
413.6580286444
 10
432.4246388968
 20
413.0399498486
 10
434.361922246
 20
412.1925116115
 10
436.3127354744
 20
411.1233840741
 10
438.2594115616
 20
409.8422490756
 10
440.1843211887
 20
408.3607134751
 10
442.0700321064
 20
406.6921867329
 10
443.899466774
 20
404.8517899067
 10
445.6560571993
 20
402.8561810923
 10
447.3238968984
 20
400.7234372817
 10
448.8878795188
 20
398.4728709135
 10
450.3338443778
 20
396.1248667681
 10
451.6486930254
 20
393.7006808355
 10
452.8205202938
 20
391.2222734065
 10
453.8387130797
 20
388.7120938707
 10
454.6940517601
 20
386.1928639942
 10
455.3787892174
 20
383.6874045414
 10
455.8867232793
 20
381.2184048616
 10
456.2132559881
 20
378.8082244138
 10
456.355429162
 20
376.4786866845
 10
456.3119546877
 20
374.2508943979
 10
456.0832290092
 20
372.1450173487
 10
455.6713199562
 20
370.1801327028
 10
455.0799601589
 20
368.3740280376
 10
454.3145035842
 20
366.7430621727
 10
453.3818833887
 20
365.3020100318
 10
452.2905460643
 20
364.0639120644
 10
451.0503724127
 20
363.0399921093
 10
449.6725972032
 20
362.2395151794
 10
449.2817826478
 20
362.0640321144
  0
LWPOLYLINE
  5
3EB
330
1F
100
AcDbEntity
  8
0
  6
Continuous
 62
     7
370
    15
100
AcDbPolyline
 90
       35
 70
   128
 43
0.0
 10
451.039435964
 20
362.9931568567
 10
451.7350815525
 20
363.4352662821
 10
452.9752552041
 20
364.4591862372
 10
454.0665925286
 20
365.6972842045
 10
454.9992127241
 20
367.1383363455
 10
455.7646692987
 20
368.7693022104
 10
456.356029096
 20
370.5754068756
 10
456.767938149
 20
372.5402915215
 10
456.9966638275
 20
374.6461685707
 10
457.0401383018
 20
376.8739608572
 10
456.897965128
 20
379.2034985866
 10
456.5714324191
 20
381.6136790344
 10
456.0634983572
 20
384.0826787142
 10
455.3787609
 20
386.588138167
 10
454.5234222196
 20
389.1073680435
 10
453.5052294336
 20
391.6175475793
 10
452.3334021652
 20
394.0959550083
 10
451.0185535177
 20
396.5201409409
 10
449.5725886586
 20
398.8681450863
 10
448.0086060382
 20
401.1187114544
 10
446.3407663391
 20
403.2514552651
 10
444.5841759138
 20
405.2470640794
 10
442.7547412463
 20
407.0874609057
 10
440.8690303285
 20
408.7559876479
 10
438.9441207014
 20
410.2375232483
 10
436.9974446142
 20
411.5186582469
 10
435.0466313858
 20
412.5877857843
 10
433.1093480367
 20
413.4352240214
 10
431.203138604
 20
414.0533028172
 10
429.3452663383
 20
414.4364244082
 10
427.5525560638
 20
414.5811179094
 10
425.8412432075
 20
414.4860656314
 10
424.2268252975
 20
414.1521401384
 10
422.7239226802
 20
413.5823568971
 10
422.0417930592
 20
413.2239893926
  0
LWPOLYLINE
  5
3EC
330
1F
100
AcDbEntity
  8
0
  6
Continuous
 62
     7
370
    15
100
AcDbPolyline
 90
       33
 70
   128
 43
0.0
 10
442.5247995653
 20
420.5891585705
 10
444.431008998
 20
419.9710797748
 10
446.3682923471
 20
419.1236415376
 10
448.3191055755
 20
418.0545140003
 10
450.2657816627
 20
416.7733790017
 10
452.1906912898
 20
415.2918434013
 10
454.0764022075
 20
413.6233166591
 10
455.9058368751
 20
411.7829198328
 10
457.6624273004
 20
409.7873110184
 10
459.3302669995
 20
407.6545672078
 10
460.8942496199
 20
405.4040008396
 10
462.340214479
 20
403.0559966942
 10
463.6550631265
 20
400.6318107616
 10
464.8268903949
 20
398.1534033326
 10
465.8450831809
 20
395.6432237968
 10
466.7004218612
 20
393.1239939203
 10
467.3851593185
 20
390.6185344675
 10
467.8930933804
 20
388.1495347877
 10
468.2196260892
 20
385.7393543399
 10
468.3617992631
 20
383.4098166106
 10
468.3183247888
 20
381.1820243241
 10
468.0895991103
 20
379.0761472748
 10
467.6776900573
 20
377.1112626289
 10
467.08633026
 20
375.3051579638
 10
466.3208736853
 20
373.6741920989
 10
465.3882534898
 20
372.2331399579
 10
464.2969161654
 20
370.9950419906
 10
463.0567425138
 20
369.9711220354
 10
461.6789673043
 20
369.1706451056
 10
460.1760646871
 20
368.6008618642
 10
458.561646777
 20
368.2669333294
 10
456.8503339208
 20
368.171887135
 10
455.549900154
 20
368.2537935817
  0
ARC
  5
3ED
330
1F
100
AcDbEntity
  8
0
  6
Continuous
 62
     7
370
    15
100
AcDbCircle
 10
438.9393014456
 20
410.2470885878
 30
0.0
 40
10.94596767282313
100
AcDbArc
 50
70.8790511388
 51
157.1409993253
  0
LWPOLYLINE
  5
3EE
330
1F
100
AcDbEntity
  8
0
  6
Continuous
 62
     7
370
    15
100
AcDbPolyline
 90
       35
 70
   128
 43
0.0
 10
434.0850067499
 20
420.1763886702
 10
434.7671363709
 20
420.5347561747
 10
436.2700389882
 20
421.1045394161
 10
437.8844568982
 20
421.438464909
 10
439.5957697545
 20
421.5335171871
 10
441.388480029
 20
421.3888236859
 10
443.2463522947
 20
421.0057020949
 10
445.1525617274
 20
420.3876232991
 10
447.0898450765
 20
419.5401850619
 10
449.0406583049
 20
418.4710575246
 10
450.9873343921
 20
417.189922526
 10
452.9122440192
 20
415.7083869256
 10
454.797954937
 20
414.0398601834
 10
456.6273896045
 20
412.1994633571
 10
458.3839800298
 20
410.2038545427
 10
460.0518197289
 20
408.0711107321
 10
461.6158023493
 20
405.8205443639
 10
463.0617672084
 20
403.4725402185
 10
464.3766158559
 20
401.0483542859
 10
465.5484431243
 20
398.5699468569
 10
466.5666359103
 20
396.0597673212
 10
467.4219745907
 20
393.5405374446
 10
468.1067120479
 20
391.0350779918
 10
468.6146461098
 20
388.5660783121
 10
468.9411788187
 20
386.1558978643
 10
469.0833519925
 20
383.8263601349
 10
469.0398775183
 20
381.5985678484
 10
468.8111518397
 20
379.4926907991
 10
468.3992427867
 20
377.5278061533
 10
467.8078829894
 20
375.7217014881
 10
467.0424264148
 20
374.0907356232
 10
466.1098062193
 20
372.6496834822
 10
465.0184688948
 20
371.4115855149
 10
463.7782952432
 20
370.3876655597
 10
463.0826496547
 20
369.9455561343
  0
LWPOLYLINE
  5
3EF
330
1F
100
AcDbEntity
  8
0
  6
Continuous
 62
     7
370
    15
100
AcDbPolyline
 90
        3
 70
   128
 43
0.0
 10
394.0571318777
 20
300.3182735271
 10
394.8179799579
 20
301.2593036783
 10
394.8276921723
 20
301.2742720202
  0
LWPOLYLINE
  5
3F0
330
1F
100
AcDbEntity
  8
0
  6
Continuous
 62
     7
370
    15
100
AcDbPolyline
 90
       11
 70
   128
 43
0.0
 10
388.9801225061
 20
322.0756959753
 10
388.9761027504
 20
322.0796226285
 10
387.6090749873
 20
323.2990091506
 10
386.2045892126
 20
324.3257729912
 10
384.7877017277
 20
325.1415984714
 10
383.3837059101
 20
325.7319205374
 10
382.0176527929
 20
326.0862076077
 10
380.7139137912
 20
326.1981379599
 10
379.4957645021
 20
326.0657152815
 10
378.3849368944
 20
325.6912990466
 10
378.0105095606
 20
325.4957276107
  0
ARC
  5
3F1
330
1F
100
AcDbEntity
  8
0
  6
Continuous
 62
     7
370
    15
100
AcDbCircle
 10
376.9654973238
 20
309.8786343313
 30
0.0
 40
17.15433127541664
100
AcDbArc
 50
45.3515316781
 51
59.5734376526
  0
LWPOLYLINE
  5
3F2
330
1F
100
AcDbEntity
  8
0
  6
Continuous
 62
     7
370
    15
100
AcDbPolyline
 90
       25
 70
   128
 43
0.0
 10
495.5397783252
 20
240.3246700189
 10
496.2119309969
 20
240.7894580456
 10
497.0403167677
 20
241.6386382214
 10
497.7081019722
 20
242.6961823272
 10
498.2033643207
 20
243.9432328064
 10
498.51726878
 20
245.3575255183
 10
498.6442150877
 20
246.9138277787
 10
498.5819325824
 20
248.5843703118
 10
498.3315381554
 20
250.3393369931
 10
497.8974941043
 20
252.1474123796
 10
497.2875554494
 20
253.9763261957
 10
496.5125960775
 20
255.7934495199
 10
495.5864506916
 20
257.5663514291
 10
494.525651393
 20
259.2633921346
 10
493.3491168485
 20
260.854294821
 10
492.0778467252
 20
262.3106657745
 10
490.7345318328
 20
263.6065114607
 10
489.3431379229
 20
264.7187160565
 10
487.9284947577
 20
265.6274277267
 10
486.5158535678
 20
266.316429688
 10
485.1304129003
 20
266.773429141
 10
483.7969024184
 20
266.9902701601
 10
482.5391140183
 20
266.9630857427
 10
481.3795014335
 20
266.6923525245
 10
480.5409951507
 20
266.3061381653
  0
ARC
  5
3F3
330
1F
100
AcDbEntity
  8
0
  6
Continuous
 62
     7
370
    15
100
AcDbCircle
 10
475.9413758902
 20
246.3307921565
 30
0.0
 40
22.72872951284324
100
AcDbArc
 50
2.584331066
 51
57.4103061131
  0
LWPOLYLINE
  5
3F4
330
1F
100
AcDbEntity
  8
0
  6
Continuous
 62
     7
370
    15
100
AcDbPolyline
 90
       10
 70
   128
 43
0.0
 10
380.4558499548
 20
326.1908591963
 10
380.7992519398
 20
326.2850823524
 10
381.9949158852
 20
326.4344673272
 10
383.278445473
 20
326.3373002261
 10
384.6259381718
 20
325.9953887082
 10
386.012290265
 20
325.4151061387
 10
387.411676271
 20
324.607257793
 10
388.7980283642
 20
323.5868923065
 10
390.145521063
 20
322.3730218701
 10
390.2086886522
 20
322.3103626132
  0
LWPOLYLINE
  5
3F5
330
1F
100
AcDbEntity
  8
0
  6
Continuous
 62
     7
370
    15
100
AcDbPolyline
 90
        3
 70
   128
 43
0.0
 10
395.4875313788
 20
302.0099831893
 10
395.4723874893
 20
301.9898766504
 10
394.8444126174
 20
301.293749311
  0
LWPOLYLINE
  5
3F6
330
1F
100
AcDbEntity
  8
0
  6
Continuous
 62
     7
370
    15
100
AcDbPolyline
 90
       14
 70
   128
 43
0.0
 10
382.8440155149
 20
326.3455751297
 10
383.4494971406
 20
327.4529024157
 10
384.2211269115
 20
328.3555438909
 10
385.1445327523
 20
329.0366767675
 10
386.2025187486
 20
329.4836118691
 10
387.3753654439
 20
329.6880309232
 10
388.6412355023
 20
329.6461204406
 10
389.9765424935
 20
329.358663006
 10
391.3564092403
 20
328.8310129856
 10
392.7551419702
 20
328.0729992327
 10
394.1466728573
 20
327.09874566
 10
395.5050921266
 20
325.9263914391
 10
396.8050853272
 20
324.5777868562
 10
396.9251775036
 20
324.4407870466
  0
ARC
  5
3F7
330
1F
100
AcDbEntity
  8
0
  6
Continuous
 62
     7
370
    15
100
AcDbCircle
 10
397.0223870186
 20
308.3881057501
 30
0.0
 40
5.164831228628564
100
AcDbArc
 50
266.7608981806
 51
325.2955098541
  0
LWPOLYLINE
  5
3F8
330
1F
100
AcDbEntity
  8
0
  6
Continuous
 62
     7
370
    15
100
AcDbPolyline
 90
       12
 70
   128
 43
0.0
 10
386.1800887227
 20
329.6345861744
 10
386.2051924393
 20
329.6489825716
 10
387.2631784357
 20
330.0959176732
 10
388.436025131
 20
330.3003367272
 10
389.7018951893
 20
330.2584262447
 10
391.0372021806
 20
329.9709688101
 10
392.4170689274
 20
329.4433187896
 10
393.8158016573
 20
328.6853050368
 10
395.2073325444
 20
327.7110514641
 10
396.5657518137
 20
326.5386972432
 10
397.8657450143
 20
325.1900926602
 10
398.0608901912
 20
324.9663280354
  0
LWPOLYLINE
  5
3F9
330
1F
100
AcDbEntity
  8
0
  6
Continuous
 62
     7
370
    15
100
AcDbPolyline
 90
        3
 70
   128
 43
0.0
 10
401.9852807207
 20
305.6132092307
 10
401.577209665
 20
305.1859094275
 10
400.6789075409
 20
304.5191699062
  0
LWPOLYLINE
  5
3FA
330
1F
100
AcDbEntity
  8
0
  6
Continuous
 62
     7
370
    15
100
AcDbPolyline
 90
       23
 70
   128
 43
0.0
 10
497.3646170106
 20
242.0946607195
 10
497.6480809086
 20
242.3770776078
 10
498.3692450968
 20
243.3456038944
 10
498.9203994348
 20
244.5127775541
 10
499.2912706282
 20
245.856854468
 10
499.4749518624
 20
247.3527904241
 10
499.4680239742
 20
248.9727308667
 10
499.2706081358
 20
250.6864975979
 10
498.8863921964
 20
252.4621576059
 10
498.3225253152
 20
254.2666375096
 10
497.5895125943
 20
256.0663288767
 10
496.7010148808
 20
257.8276996174
 10
495.6735748129
 20
259.5179418729
 10
494.5263375964
 20
261.1055712343
 10
493.2806716836
 20
262.5610107418
 10
491.9597789146
 20
263.8571505497
 10
490.5882677805
 20
264.9698437075
 10
489.1916898082
 20
265.8783623943
 10
487.79606014
 20
266.5657811472
 10
486.4273675764
 20
267.0193053353
 10
485.1111214974
 20
267.2304718794
 10
483.8718302955
 20
267.1953560487
 10
482.986335545
 20
267.0012697509
  0
LWPOLYLINE
  5
3FB
330
1F
100
AcDbEntity
  8
0
  6
Continuous
 62
     7
370
    15
100
AcDbPolyline
 90
       24
 70
   128
 43
0.0
 10
503.2093904969
 20
245.3295819816
 10
504.0739013852
 20
245.9650359306
 10
504.8518373783
 20
246.8591942735
 10
505.4641362567
 20
247.9587837288
 10
505.8993867613
 20
249.2433254811
 10
506.1494861604
 20
250.6888915657
 10
506.2097719588
 20
252.2685459493
 10
506.0791272651
 20
253.952867739
 10
505.7599807915
 20
255.7104804637
 10
505.2582805119
 20
257.5086391494
 10
504.5833672216
 20
259.3138569287
 10
503.747821755
 20
261.0924951457
 10
502.767196299
 20
262.811432538
 10
501.6597720493
 20
264.4386370821
 10
500.4461693515
 20
265.9438047458
 10
499.1489947215
 20
267.2988948207
 10
497.7924141085
 20
268.4786682902
 10
496.4017050848
 20
269.461137981
 10
495.0027616207
 20
270.2280126277
 10
493.6216515419
 20
270.7650010158
 10
492.2841002309
 20
271.0621039511
 10
491.0150217438
 20
271.1137845598
 10
489.8380604624
 20
270.9190807936
 10
488.7751406506
 20
270.4816160339
  0
ARC
  5
3FC
330
1F
100
AcDbEntity
  8
0
  6
Continuous
 62
     7
370
    15
100
AcDbCircle
 10
490.4740605538
 20
265.1266811713
 30
0.0
 40
5.487058401554743
100
AcDbArc
 50
120.1937148435
 51
157.7428580714
  0
LWPOLYLINE
  5
3FD
330
1F
100
AcDbEntity
  8
0
  6
Continuous
 62
     7
370
    15
100
AcDbPolyline
 90
       27
 70
   128
 43
0.0
 10
498.7459628484
 20
244.0793543787
 10
499.8442781105
 20
244.0484913881
 10
501.0212393918
 20
244.2431951543
 10
502.0841618379
 20
244.6806583933
 10
503.0132416981
 20
245.3527301265
 10
503.7911776912
 20
246.2468884694
 10
504.4034765696
 20
247.3464779248
 10
504.8387270742
 20
248.6310196771
 10
505.0888264733
 20
250.0765857616
 10
505.1491122717
 20
251.6562401453
 10
505.018467578
 20
253.340561935
 10
504.6993211044
 20
255.0981746596
 10
504.1976208248
 20
256.8963333453
 10
503.5227075345
 20
258.7015511247
 10
502.6871620679
 20
260.4801893416
 10
501.7065366119
 20
262.1991267339
 10
500.5991123622
 20
263.826331278
 10
499.3855096644
 20
265.3314989417
 10
498.0883350344
 20
266.6865890167
 10
496.7317544214
 20
267.8663624861
 10
495.3410453978
 20
268.848832177
 10
493.9421019336
 20
269.6157068237
 10
492.5609918548
 20
270.1526952117
 10
491.2234405439
 20
270.4497981471
 10
489.9543620567
 20
270.5014787558
 10
488.7774007753
 20
270.3067749895
 10
487.7144809635
 20
269.8693102298
  0
ARC
  5
3FE
330
1F
100
AcDbEntity
  8
0
  6
Continuous
 62
     7
370
    15
100
AcDbCircle
 10
490.511886608
 20
254.7421721256
 30
0.0
 40
8.194450836343133
100
AcDbArc
 50
350.8544818369
 51
69.1401274804
  0
LWPOLYLINE
  5
3FF
330
1F
100
AcDbEntity
  8
0
  6
Continuous
 62
     7
370
    15
100
AcDbPolyline
 90
       43
 70
   128
 43
0.0
 10
388.8282529229
 20
296.4933654502
 10
388.7762568827
 20
294.6216043595
 10
388.5330563959
 20
292.8801169556
 10
388.1019547218
 20
291.292541777
 10
387.4888023696
 20
289.8804324118
 10
386.7019233421
 20
288.662953306
 10
385.7520018653
 20
287.6566287998
 10
384.6519296065
 20
286.875127142
 10
383.4166423551
 20
286.3290566704
 10
382.0629092886
 20
286.0258258672
 10
380.6091037986
 20
285.9695566442
 10
379.0749637811
 20
286.1610037119
 10
377.4813124136
 20
286.5975758457
 10
375.8497868343
 20
287.273346507
 10
374.2025352122
 20
288.1791374663
 10
372.5619164503
 20
289.3026556574
 10
370.9501998898
 20
290.6286482843
 10
369.3892650135
 20
292.1391187644
 10
367.9003064176
 20
293.8135578813
 10
366.5035282478
 20
295.6292418577
 10
365.2179018543
 20
297.5615121833
 10
364.0608707639
 20
299.5841466923
 10
363.0481452144
 20
301.6696911069
 10
362.1934703469
 20
303.7898240367
 10
361.5084523497
 20
305.9157736968
 10
361.0023846029
 20
308.0186798717
 10
360.6821423112
 20
310.0699954296
 10
360.5520718684
 20
312.0418665434
 10
360.6139381736
 20
313.9075342106
 10
360.86689829
 20
315.641671896
 10
361.3075225178
 20
317.2207323047
 10
361.9298260044
 20
318.6232880728
 10
362.7253688435
 20
319.8302903338
 10
363.6833403684
 20
320.8253637864
 10
364.7907435446
 20
321.5949953064
 10
366.0325424841
 20
322.1287377646
 10
367.3918784473
 20
322.4193469305
 10
368.8503069198
 20
322.4628727501
 10
370.388024151
 20
322.2587323715
 10
371.9841516459
 20
321.8096919205
 10
373.6170311927
 20
321.1218482773
 10
375.2644882807
 20
320.2045408873
 10
376.9041640068
 20
319.070217951
  0
LWPOLYLINE
  5
400
330
1F
100
AcDbEntity
  8
0
  6
Continuous
 62
     7
370
    15
100
AcDbPolyline
 90
       24
 70
   128
 43
0.0
 10
376.9041640068
 20
319.070217951
 10
380.1710610653
 20
319.1157111991
 10
383.3448188569
 20
319.4119994111
 10
386.4165417625
 20
319.958243722
 10
389.3776081173
 20
320.7529178345
 10
392.219712358
 20
321.7937897709
 10
394.9348808277
 20
323.0779401265
 10
397.5155007519
 20
324.6017666348
 10
399.9543334093
 20
326.360994815
 10
402.2445325713
 20
328.3506916625
 10
404.3796774289
 20
330.5652740167
 10
406.3537778612
 20
332.9985298546
 10
408.1612968261
 20
335.6436342626
 10
409.7971635307
 20
338.4931673088
 10
411.2567905542
 20
341.5391344848
 10
412.5360804325
 20
344.7729937828
 10
413.6314480493
 20
348.1856718876
 10
414.539819319
 20
351.7675958962
 10
415.2586456741
 20
355.5087202346
 10
415.7859106515
 20
359.3985480445
 10
416.1201364773
 20
363.4261695866
 10
416.2603847255
 20
367.5802861953
 10
416.2062622451
 20
371.8492464016
 10
415.9579205014
 20
376.2210736897
  0
LWPOLYLINE
  5
401
330
1F
100
AcDbEntity
  8
0
  6
Continuous
 62
     7
370
    15
100
AcDbPolyline
 90
       42
 70
   128
 43
0.0
 10
415.9579205014
 20
376.2210736897
 10
414.8768176171
 20
378.2455978492
 10
413.9419372969
 20
380.3196513693
 10
413.1656186891
 20
382.4158614052
 10
412.5581061121
 20
384.5065617574
 10
412.1274180039
 20
386.5641605427
 10
411.8792389206
 20
388.5615036855
 10
411.8168418285
 20
390.4722330887
 10
411.9410538594
 20
392.2711227549
 10
412.2502326034
 20
393.9344483691
 10
412.7402977186
 20
395.4402397757
 10
413.4047836151
 20
396.7686368793
 10
414.2349197972
 20
397.9021079062
 10
415.2197513769
 20
398.8256840174
 10
416.3462786857
 20
399.5271828987
 10
417.5996363984
 20
399.9973487019
 10
418.9632825354
 20
400.2299741175
 10
420.4192210511
 20
400.2219848065
 10
421.9482359459
 20
399.9734928452
 10
423.5301492515
 20
399.4877755512
 10
425.1440828844
 20
398.7712399091
 10
426.7687373749
 20
397.8333468353
 10
428.3826710078
 20
396.6864743686
 10
429.9645843134
 20
395.3457534368
 10
431.4935992082
 20
393.8288823774
 10
432.9495377238
 20
392.1558808591
 10
434.3131838609
 20
390.3488231264
 10
435.5665415735
 20
388.4315613105
 10
436.6930688823
 20
386.4294016839
 10
437.677900462
 20
384.3687632337
 10
438.5080366441
 20
382.2768373723
 10
439.1725225406
 20
380.1812411828
 10
439.6625876559
 20
378.109632638
 10
439.9717663998
 20
376.0893368443
 10
440.0959784308
 20
374.1470350198
 10
440.0335813386
 20
372.3083477657
 10
439.7854022553
 20
370.5975460933
 10
439.3547141471
 20
369.0372092132
 10
438.7472015702
 20
367.6479279523
 10
437.9708829624
 20
366.4480363022
 10
437.0360026421
 20
365.4533726245
 10
435.9548997579
 20
364.6770632861
  0
LWPOLYLINE
  5
402
330
1F
100
AcDbEntity
  8
0
  6
Continuous
 62
     7
370
    15
100
AcDbPolyline
 90
       24
 70
   128
 43
0.0
 10
435.9548997579
 20
364.6770632861
 10
435.7065580141
 20
360.5919652722
 10
435.6524355337
 20
356.3854935516
 10
435.7926837819
 20
352.0694497622
 10
436.1269096077
 20
347.6559392956
 10
436.6541745851
 20
343.1573443007
 10
437.3730009403
 20
338.5862807183
 10
438.2813722099
 20
333.9555735659
 10
439.3767398267
 20
329.2782109302
 10
440.656029705
 20
324.5673149783
 10
442.1156567285
 20
319.8360983127
 10
443.7515234332
 20
315.097833772
 10
445.559042398
 20
310.3658123884
 10
447.5331428304
 20
305.6533087065
 10
449.6682876879
 20
300.9735405727
 10
451.9584868499
 20
296.3396360563
 10
454.3973195074
 20
291.7645916262
 10
456.9779394316
 20
287.2612447743
 10
459.6931079013
 20
282.842227631
 10
462.535212142
 20
278.5199319854
 10
465.4962784968
 20
274.3064834304
 10
468.5680014023
 20
270.2137033428
 10
471.741759194
 20
266.2530723824
 10
475.0086562525
 20
262.4357000772
  0
LWPOLYLINE
  5
403
330
1F
100
AcDbEntity
  8
0
  6
Continuous
 62
     7
370
    15
100
AcDbPolyline
 90
       39
 70
   128
 43
0.0
 10
475.0086562525
 20
262.4357000772
 10
476.6483319786
 20
261.6768937166
 10
478.2957890666
 20
260.6920876403
 10
479.9286686134
 20
259.4946486882
 10
481.5247961083
 20
258.1008395597
 10
483.0625133395
 20
256.5295694138
 10
484.5209418119
 20
254.802177922
 10
485.8802777752
 20
252.9421128598
 10
487.1220767146
 20
250.9746198643
 10
488.2294798909
 20
248.9264078524
 10
489.1874514158
 20
246.8252840201
 10
489.9829942548
 20
244.6997675482
 10
490.6052977414
 20
242.5787154681
 10
491.0459219692
 20
240.4909211547
 10
491.2988820856
 20
238.4647219356
 10
491.3607483909
 20
236.5276249528
 10
491.230677948
 20
234.7059299757
 10
490.9104356563
 20
233.0243582976
 10
490.4043679095
 20
231.5057455061
 10
489.7193499123
 20
230.1707007906
 10
488.8646750448
 20
229.0373544586
 10
487.8519494953
 20
228.1210780749
 10
486.694918405
 20
227.4343232277
 10
485.4092920114
 20
226.9864055409
 10
484.0125138416
 20
226.7834073122
 10
482.5235552458
 20
226.8280831977
 10
480.9626203694
 20
227.1198297647
 10
479.3509038089
 20
227.6546854692
 10
477.7102850471
 20
228.425385381
 10
476.0630334249
 20
229.4214706621
 10
474.4315078457
 20
230.6294193384
 10
472.8378564781
 20
232.0328379083
 10
471.3037164607
 20
233.612671202
 10
469.8499109707
 20
235.3474685153
 10
468.4961779041
 20
237.2136862481
 10
467.2608906527
 20
239.1859890218
 10
466.1608183939
 20
241.2376070745
 10
465.2108969171
 20
243.3406875727
 10
465.0571662872
 20
243.7217988976
  0
LWPOLYLINE
  5
404
330
1F
100
AcDbEntity
  8
0
  6
Continuous
 62
     7
370
    15
100
AcDbPolyline
 90
        3
 70
   128
 43
0.0
 10
463.174582468
 20
251.2473698661
 10
463.1365633765
 20
251.6943131537
 10
463.0845673363
 20
253.6261075945
  0
LWPOLYLINE
  5
405
330
1F
100
AcDbEntity
  8
0
  6
Continuous
 62
     7
370
    15
100
AcDbPolyline
 90
       33
 70
   128
 43
0.0
 10
463.0845673363
 20
253.6261075945
 10
461.6358194682
 20
257.2634131925
 10
460.0288470623
 20
260.8745105598
 10
458.2707782046
 20
264.4433728496
 10
456.3694100619
 20
267.9541801235
 10
454.3331693698
 20
271.391363455
 10
452.1710887247
 20
274.7396824942
 10
449.8927591689
 20
277.9842832592
 10
447.5082788239
 20
281.1107825417
 10
445.0282265486
 20
284.1053104914
 10
442.4635974022
 20
286.9545934998
 10
439.8257657653
 20
289.6459906989
 10
437.1264287056
 20
292.1675692422
 10
434.3775572451
 20
294.5081446044
 10
431.5913410426
 20
296.657342934
 10
428.780136698
 20
298.605627855
 10
425.9564101296
 20
300.3443611083
 10
423.1326835612
 20
301.8658331554
 10
420.3214792167
 20
303.163295683
 10
417.5352630142
 20
304.2309941073
 10
414.7863915536
 20
305.0641981776
 10
412.0870544939
 20
305.659207865
 10
409.449222857
 20
306.0133862469
 10
406.8845937106
 20
306.1251610231
 10
404.4045414353
 20
305.9940404811
 10
402.0200610903
 20
305.6206036043
 10
399.7417315345
 20
305.0065061527
 10
397.5796508895
 20
304.1544722912
 10
395.5434101974
 20
303.0682824206
 10
393.6420420547
 20
301.7527480766
 10
391.8839731969
 20
300.2137088839
 10
390.2770007911
 20
298.4579823637
 10
388.8282529229
 20
296.4933654502
  0
LINE
  5
406
330
1F
100
AcDbEntity
  8
0
  6
Continuous
 62
     7
370
    15
100
AcDbLine
 10
440.1975404819
 20
367.1262876428
 30
0.0
 11
435.9548997579
 21
364.6770632861
 31
0.0
  0
LINE
  5
407
330
1F
100
AcDbEntity
  8
0
  6
Continuous
 62
     7
370
    15
100
AcDbLine
 10
479.2512969765
 20
264.884924434
 30
0.0
 11
475.0086562525
 21
262.4357000772
 31
0.0
  0
LWPOLYLINE
  5
408
330
1F
100
AcDbEntity
  8
0
  6
Continuous
 62
     7
370
    15
100
AcDbPolyline
 90
       24
 70
   128
 43
0.0
 10
440.1975404819
 20
367.1262876428
 10
439.9491987381
 20
363.0411896289
 10
439.8950762577
 20
358.8347179084
 10
440.0353245059
 20
354.5186741189
 10
440.3695503317
 20
350.1051636523
 10
440.8968153091
 20
345.6065686575
 10
441.6156416643
 20
341.0355050751
 10
442.5240129339
 20
336.4047979227
 10
443.6193805507
 20
331.7274352869
 10
444.898670429
 20
327.0165393351
 10
446.3582974525
 20
322.2853226694
 10
447.9941641572
 20
317.5470581288
 10
449.801683122
 20
312.8150367452
 10
451.7757835544
 20
308.1025330633
 10
453.9109284119
 20
303.4227649295
 10
456.2011275739
 20
298.7888604131
 10
458.6399602314
 20
294.2138159829
 10
461.2205801556
 20
289.710469131
 10
463.9357486253
 20
285.2914519878
 10
466.777852866
 20
280.9691563421
 10
469.7389192208
 20
276.7557077871
 10
472.8106421263
 20
272.6629276995
 10
475.984399918
 20
268.7022967391
 10
479.2512969765
 20
264.884924434
  0
LWPOLYLINE
  5
409
330
1F
100
AcDbEntity
  8
0
  6
Continuous
 62
     7
370
    15
100
AcDbPolyline
 90
       30
 70
   128
 43
0.0
 10
420.1998638267
 20
401.7686415651
 10
420.5889194097
 20
401.9764072554
 10
421.8422771224
 20
402.4465730586
 10
423.2059232594
 20
402.6791984742
 10
424.6618617751
 20
402.6712091632
 10
426.1908766699
 20
402.4227172019
 10
427.7727899755
 20
401.9369999079
 10
429.3867236084
 20
401.2204642658
 10
431.0113780989
 20
400.2825711921
 10
432.6253117318
 20
399.1356987254
 10
434.2072250374
 20
397.7949777936
 10
435.7362399322
 20
396.2781067342
 10
437.1921784478
 20
394.6051052158
 10
438.5558245849
 20
392.7980474832
 10
439.8091822975
 20
390.8807856672
 10
440.9357096063
 20
388.8786260406
 10
441.920541186
 20
386.8179875905
 10
442.7506773681
 20
384.7260617291
 10
443.4151632646
 20
382.6304655396
 10
443.9052283799
 20
380.5588569948
 10
444.2144071238
 20
378.5385612011
 10
444.3386191548
 20
376.5962593766
 10
444.2762220626
 20
374.7575721225
 10
444.0280429793
 20
373.04677045
 10
443.5973548711
 20
371.48643357
 10
442.9898422942
 20
370.0971523091
 10
442.2135236864
 20
368.897260659
 10
441.2786433661
 20
367.9025969812
 10
440.1975404819
 20
367.1262876428
 10
440.1975404819
 20
367.1262876428
  0
LWPOLYLINE
  5
40A
330
1F
100
AcDbEntity
  8
0
  6
Continuous
 62
     7
370
    15
100
AcDbPolyline
 90
       23
 70
   128
 43
0.0
 10
479.2512969765
 20
264.884924434
 10
480.8909727026
 20
264.1261180733
 10
482.5384297906
 20
263.1413119971
 10
484.1713093374
 20
261.9438730449
 10
485.7674368323
 20
260.5500639165
 10
487.3051540635
 20
258.9787937706
 10
488.7635825359
 20
257.2514022788
 10
490.1229184992
 20
255.3913372165
 10
491.3647174386
 20
253.4238442211
 10
492.4721206149
 20
251.3756322092
 10
493.4300921398
 20
249.2745083769
 10
494.2256349788
 20
247.148991905
 10
494.8479384654
 20
245.0279398248
 10
495.2885626932
 20
242.9401455114
 10
495.5415228096
 20
240.9139462924
 10
495.6033891149
 20
238.9768493095
 10
495.473318672
 20
237.1551543325
 10
495.1530763803
 20
235.4735826544
 10
494.6470086335
 20
233.9549698629
 10
493.9619906363
 20
232.6199251474
 10
493.1073157688
 20
231.4865788153
 10
492.0945902193
 20
230.5703024316
 10
491.4634780414
 20
230.1567795384
  0
LINE
  5
40B
330
1F
100
AcDbEntity
  8
0
  6
Continuous
 62
     7
370
    15
100
AcDbLine
 10
381.1468047308
 20
321.5194423078
 30
0.0
 11
376.9041640068
 21
319.070217951
 31
0.0
  0
ARC
  5
40C
330
1F
100
AcDbEntity
  8
0
  6
Continuous
 62
     7
370
    15
100
AcDbCircle
 10
382.5233425945
 20
358.0298469103
 30
0.0
 40
36.53634492840325
100
AcDbArc
 50
267.8408217654
 51
295.1312837632
  0
LINE
  5
40D
330
1F
100
AcDbEntity
  8
0
  6
Continuous
 62
     7
370
    15
100
AcDbLine
 10
393.0708936469
 20
298.9425898069
 30
0.0
 11
388.8282529229
 21
296.4933654502
 31
0.0
  0
ARC
  5
40E
330
1F
100
AcDbEntity
  8
0
  6
Continuous
 62
     7
370
    15
100
AcDbCircle
 10
411.3343307054
 20
287.0546170756
 30
0.0
 40
21.79167338342565
100
AcDbArc
 50
127.2127417978
 51
146.9392324584
  0
LWPOLYLINE
  5
40F
330
1F
100
AcDbEntity
  8
0
  6
Continuous
 62
     7
370
    15
100
AcDbPolyline
 90
        8
 70
   128
 43
0.0
 10
393.0708936469
 20
298.9425898069
 10
393.0188976067
 20
297.0708287163
 10
392.7756971199
 20
295.3293413124
 10
392.3445954458
 20
293.7417661337
 10
391.7314430936
 20
292.3296567685
 10
390.9445640661
 20
291.1121776627
 10
389.9946425893
 20
290.1058531566
 10
388.9329977196
 20
289.3463659424
  0
LWPOLYLINE
  5
410
330
1F
100
AcDbEntity
  8
0
  6
Continuous
 62
     7
370
    15
100
AcDbPolyline
 90
       10
 70
   128
 43
0.0
 10
368.9346236658
 20
323.9883194155
 10
369.0333842686
 20
324.0442196632
 10
370.2751832081
 20
324.5779621213
 10
371.6345191713
 20
324.8685712872
 10
373.0929476438
 20
324.9120971069
 10
374.630664875
 20
324.7079567283
 10
376.2267923699
 20
324.2589162773
 10
377.8596719166
 20
323.5710726341
 10
379.5071290047
 20
322.6537652441
 10
381.1468047308
 20
321.5194423078
  0
ENDSEC
  0
SECTION
  2
OBJECTS
  0
DICTIONARY
  5
C
330
0
100
AcDbDictionary
281
     1
  3
ACAD_GROUP
350
D
  3
ACAD_LAYOUT
350
1A
  3
ACAD_MLINESTYLE
350
17
  3
ACAD_PLOTSETTINGS
350
19
  3
ACAD_PLOTSTYLENAME
350
E
  3
ACAD_SCALELIST
350
47
  0
DICTIONARY
  5
D
102
{ACAD_REACTORS
330
C
102
}
330
C
100
AcDbDictionary
281
     1
  0
DICTIONARY
  5
1A
102
{ACAD_REACTORS
330
C
102
}
330
C
100
AcDbDictionary
281
     1
  3
Layout1
350
1E
  3
Layout2
350
26
  3
Model
350
22
  0
DICTIONARY
  5
17
102
{ACAD_REACTORS
330
C
102
}
330
C
100
AcDbDictionary
281
     1
  3
Standard
350
18
  0
DICTIONARY
  5
19
102
{ACAD_REACTORS
330
C
102
}
330
C
100
AcDbDictionary
281
     1
  0
ACDBDICTIONARYWDFLT
  5
E
102
{ACAD_REACTORS
330
C
102
}
330
C
100
AcDbDictionary
281
     1
  3
Normal
350
F
100
AcDbDictionaryWithDefault
340
F
  0
DICTIONARY
  5
47
102
{ACAD_REACTORS
330
C
102
}
330
C
100
AcDbDictionary
281
     1
  3
A0
350
48
  3
A1
350
49
  3
A2
350
4A
  3
A3
350
4B
  3
A4
350
4C
  3
A5
350
4D
  3
A6
350
4E
  3
A7
350
4F
  3
A8
350
50
  3
A9
350
51
  3
B0
350
52
  3
B1
350
53
  3
B2
350
54
  3
B3
350
55
  3
B4
350
56
  3
B5
350
57
  3
B6
350
58
  3
B7
350
59
  3
B8
350
5A
  3
B9
350
5B
  3
C0
350
5C
  3
C1
350
5D
  3
C2
350
5E
  3
C3
350
5F
  3
C4
350
60
  3
C5
350
61
  3
C6
350
62
  3
C7
350
63
  3
C8
350
64
  3
C9
350
65
  3
D0
350
66
  3
D1
350
67
  3
D2
350
68
  0
LAYOUT
  5
1E
102
{ACAD_REACTORS
330
1A
102
}
330
1A
100
AcDbPlotSettings
  1

  2
none_device
  4

  6

 40
0.0
 41
0.0
 42
0.0
 43
0.0
 44
0.0
 45
0.0
 46
0.0
 47
0.0
 48
0.0
 49
0.0
140
0.0
141
0.0
142
1.0
143
1.0
 70
   688
 72
     1
 73
     0
 74
     5
  7

 75
    16
147
1.0
148
0.0
149
0.0
100
AcDbLayout
  1
Layout1
 70
     1
 71
     1
 10
0.0
 20
0.0
 11
420.0
 21
297.0
 12
0.0
 22
0.0
 32
0.0
 14
1.0000000000E+20
 24
1.0000000000E+20
 34
1.0000000000E+20
 15
-1.0000000000E+20
 25
-1.0000000000E+20
 35
-1.0000000000E+20
146
0.0
 13
0.0
 23
0.0
 33
0.0
 16
1.0
 26
0.0
 36
0.0
 17
0.0
 27
1.0
 37
0.0
 76
     0
330
1B
  0
LAYOUT
  5
26
102
{ACAD_REACTORS
330
1A
102
}
330
1A
100
AcDbPlotSettings
  1

  2
none_device
  4

  6

 40
0.0
 41
0.0
 42
0.0
 43
0.0
 44
0.0
 45
0.0
 46
0.0
 47
0.0
 48
0.0
 49
0.0
140
0.0
141
0.0
142
1.0
143
1.0
 70
   688
 72
     1
 73
     0
 74
     5
  7

 75
    16
147
1.0
148
0.0
149
0.0
100
AcDbLayout
  1
Layout2
 70
     1
 71
     2
 10
0.0
 20
0.0
 11
0.0
 21
0.0
 12
0.0
 22
0.0
 32
0.0
 14
0.0
 24
0.0
 34
0.0
 15
0.0
 25
0.0
 35
0.0
146
0.0
 13
0.0
 23
0.0
 33
0.0
 16
1.0
 26
0.0
 36
0.0
 17
0.0
 27
1.0
 37
0.0
 76
     0
330
23
  0
LAYOUT
  5
22
102
{ACAD_REACTORS
330
1A
102
}
330
1A
100
AcDbPlotSettings
  1

  2
none_device
  4
Letter_(8.50_x_11.00_Inches)
  6

 40
6.35
 41
6.35
 42
6.35000508
 43
6.35000508
 44
215.9
 45
279.4
 46
0.0
 47
0.0
 48
0.0
 49
0.0
140
0.0
141
0.0
142
1.0
143
1.0
 70
  1712
 72
     1
 73
     0
 74
     0
  7

 75
     0
147
1.0
148
0.0
149
0.0
100
AcDbLayout
  1
Model
 70
     1
 71
     0
 10
0.0
 20
0.0
 11
431.8
 21
279.4
 12
0.0
 22
0.0
 32
0.0
 14
0.0
 24
0.0
 34
0.0
 15
431.8
 25
279.4
 35
0.0
146
0.0
 13
0.0
 23
0.0
 33
0.0
 16
1.0
 26
0.0
 36
0.0
 17
0.0
 27
1.0
 37
0.0
 76
     0
330
1F
331
29
  0
MLINESTYLE
  5
18
102
{ACAD_REACTORS
330
17
102
}
330
17
100
AcDbMlineStyle
  2
Standard
 70
     0
  3

 62
   256
 51
90.0
 52
90.0
 71
     2
 49
0.5
 62
   256
  6
BYLAYER
 49
-0.5
 62
   256
  6
BYLAYER
  0
ACDBPLACEHOLDER
  5
F
102
{ACAD_REACTORS
330
E
102
}
330
E
  0
SCALE
  5
48
102
{ACAD_REACTORS
330
47
102
}
330
47
100
AcDbScale
 70
     0
300
1:1
140
1.0
141
1.0
290
     1
  0
SCALE
  5
49
102
{ACAD_REACTORS
330
47
102
}
330
47
100
AcDbScale
 70
     0
300
1:2
140
1.0
141
2.0
290
     0
  0
SCALE
  5
4A
102
{ACAD_REACTORS
330
47
102
}
330
47
100
AcDbScale
 70
     0
300
1:4
140
1.0
141
4.0
290
     0
  0
SCALE
  5
4B
102
{ACAD_REACTORS
330
47
102
}
330
47
100
AcDbScale
 70
     0
300
1:5
140
1.0
141
5.0
290
     0
  0
SCALE
  5
4C
102
{ACAD_REACTORS
330
47
102
}
330
47
100
AcDbScale
 70
     0
300
1:8
140
1.0
141
8.0
290
     0
  0
SCALE
  5
4D
102
{ACAD_REACTORS
330
47
102
}
330
47
100
AcDbScale
 70
     0
300
1:10
140
1.0
141
10.0
290
     0
  0
SCALE
  5
4E
102
{ACAD_REACTORS
330
47
102
}
330
47
100
AcDbScale
 70
     0
300
1:16
140
1.0
141
16.0
290
     0
  0
SCALE
  5
4F
102
{ACAD_REACTORS
330
47
102
}
330
47
100
AcDbScale
 70
     0
300
1:20
140
1.0
141
20.0
290
     0
  0
SCALE
  5
50
102
{ACAD_REACTORS
330
47
102
}
330
47
100
AcDbScale
 70
     0
300
1:30
140
1.0
141
30.0
290
     0
  0
SCALE
  5
51
102
{ACAD_REACTORS
330
47
102
}
330
47
100
AcDbScale
 70
     0
300
1:40
140
1.0
141
40.0
290
     0
  0
SCALE
  5
52
102
{ACAD_REACTORS
330
47
102
}
330
47
100
AcDbScale
 70
     0
300
1:50
140
1.0
141
50.0
290
     0
  0
SCALE
  5
53
102
{ACAD_REACTORS
330
47
102
}
330
47
100
AcDbScale
 70
     0
300
1:100
140
1.0
141
100.0
290
     0
  0
SCALE
  5
54
102
{ACAD_REACTORS
330
47
102
}
330
47
100
AcDbScale
 70
     0
300
2:1
140
2.0
141
1.0
290
     0
  0
SCALE
  5
55
102
{ACAD_REACTORS
330
47
102
}
330
47
100
AcDbScale
 70
     0
300
4:1
140
4.0
141
1.0
290
     0
  0
SCALE
  5
56
102
{ACAD_REACTORS
330
47
102
}
330
47
100
AcDbScale
 70
     0
300
8:1
140
8.0
141
1.0
290
     0
  0
SCALE
  5
57
102
{ACAD_REACTORS
330
47
102
}
330
47
100
AcDbScale
 70
     0
300
10:1
140
10.0
141
1.0
290
     0
  0
SCALE
  5
58
102
{ACAD_REACTORS
330
47
102
}
330
47
100
AcDbScale
 70
     0
300
100:1
140
100.0
141
1.0
290
     0
  0
SCALE
  5
59
102
{ACAD_REACTORS
330
47
102
}
330
47
100
AcDbScale
 70
     0
300
1/128" = 1'-0"
140
0.0078125
141
12.0
290
     0
  0
SCALE
  5
5A
102
{ACAD_REACTORS
330
47
102
}
330
47
100
AcDbScale
 70
     0
300
1/64" = 1'-0"
140
0.015625
141
12.0
290
     0
  0
SCALE
  5
5B
102
{ACAD_REACTORS
330
47
102
}
330
47
100
AcDbScale
 70
     0
300
1/32" = 1'-0"
140
0.03125
141
12.0
290
     0
  0
SCALE
  5
5C
102
{ACAD_REACTORS
330
47
102
}
330
47
100
AcDbScale
 70
     0
300
1/16" = 1'-0"
140
0.0625
141
12.0
290
     0
  0
SCALE
  5
5D
102
{ACAD_REACTORS
330
47
102
}
330
47
100
AcDbScale
 70
     0
300
3/32" = 1'-0"
140
0.09375
141
12.0
290
     0
  0
SCALE
  5
5E
102
{ACAD_REACTORS
330
47
102
}
330
47
100
AcDbScale
 70
     0
300
1/8" = 1'-0"
140
0.125
141
12.0
290
     0
  0
SCALE
  5
5F
102
{ACAD_REACTORS
330
47
102
}
330
47
100
AcDbScale
 70
     0
300
3/16" = 1'-0"
140
0.1875
141
12.0
290
     0
  0
SCALE
  5
60
102
{ACAD_REACTORS
330
47
102
}
330
47
100
AcDbScale
 70
     0
300
1/4" = 1'-0"
140
0.25
141
12.0
290
     0
  0
SCALE
  5
61
102
{ACAD_REACTORS
330
47
102
}
330
47
100
AcDbScale
 70
     0
300
3/8" = 1'-0"
140
0.375
141
12.0
290
     0
  0
SCALE
  5
62
102
{ACAD_REACTORS
330
47
102
}
330
47
100
AcDbScale
 70
     0
300
1/2" = 1'-0"
140
0.5
141
12.0
290
     0
  0
SCALE
  5
63
102
{ACAD_REACTORS
330
47
102
}
330
47
100
AcDbScale
 70
     0
300
3/4" = 1'-0"
140
0.75
141
12.0
290
     0
  0
SCALE
  5
64
102
{ACAD_REACTORS
330
47
102
}
330
47
100
AcDbScale
 70
     0
300
1" = 1'-0"
140
1.0
141
12.0
290
     0
  0
SCALE
  5
65
102
{ACAD_REACTORS
330
47
102
}
330
47
100
AcDbScale
 70
     0
300
1-1/2" = 1'-0"
140
1.5
141
12.0
290
     0
  0
SCALE
  5
66
102
{ACAD_REACTORS
330
47
102
}
330
47
100
AcDbScale
 70
     0
300
3" = 1'-0"
140
3.0
141
12.0
290
     0
  0
SCALE
  5
67
102
{ACAD_REACTORS
330
47
102
}
330
47
100
AcDbScale
 70
     0
300
6" = 1'-0"
140
6.0
141
12.0
290
     0
  0
SCALE
  5
68
102
{ACAD_REACTORS
330
47
102
}
330
47
100
AcDbScale
 70
     0
300
1'-0" = 1'-0"
140
12.0
141
12.0
290
     0
  0
ENDSEC
  0
EOF
